Oops, an error
Loading. Please wait.

Chaos Without Prophecy Tab

ver1
ver1

Whole song

More versions @911Tabs.com
683 views 1 this week
no commentswrite comment
1 2 3 4 5
please rate
Autoscroll
+/-
esc
set tempo
stop
Contributor
NEW! There's an official Ultimate Guitar app which is ideal
for learning songs when you're away from computer. Get the app
WARNING: You are trying to view
                                    content from Ultimate-Guitar.com
                                    in an unauthorized application,
                                    which is prohibited.

                                    Please use an official Ultimate
                                    Guitar Tabs application for iPhone,
                                    iPad or Android to access legitimate
                                    chords, guitar, bass, and drum tabs
                                    from Ultimate-Guitar.com database.

                                    Type "ultimate guitar tabs" in Apple
                                    App Store's or Android Market's
                                    search to find the application.
                     DIMMU BORGIR - CHAOS WITHOUT PROPHECY

From the album: Godless Savage Garden

Tabbed by: Arto Osterman
E-mail: thornofsin@hotmail.com


I didn't tab solo cause it was too fast and great for me...

Tuning: standard


Marking:

Palm mute:  .......
Let ring: l
Mute: m



                               On the last time play this

Riff 1:         Fill 1:        Fill 2:

|--------------|--------------|-----|
|--------------|--------------|-----|
|--------------|--------------|-----|
|--9--9--9--9--|--5--5--5--5--|--5--|
|--7--7--7--7--|--3--3--3--3--|--3--|
|--------------|--------------|-----|
   m  m  m  m     m  m  m  m     l

Riff 2:

|--------------------------------------|
|--------------------------------------|
|--------------------------------------|
|--9---5555555555555555----9---5---55--|
|--7---3333333333333333----7---3---33--|
|--------------------------------------|
   l                       l   l   ..

Riff 3:

|---------------------------------------------|
|---------------------------------------------|
|---------------------------------------------|
|--9-99-9-99-9-99-9-99---5-55-5-55-5-55-5-55--|
|--7-77-7-77-7-77-7-77---3-33-3-33-3-33-3-33--|
|---------------------------------------------|
     ..   ..   ..   ..     ..   ..   ..   ..

Riff 4:
|---------------|
|---------------|
|---------------|
|--10--9--5-----|
|--8---7--3-----|
|---------------|
   l   l  l

Riff 5 (Guitar 1):
|----------------------------------------|
|----------------------------------------|
|----------------------------------------|
|--1010101010101010--99999999--55555555--|
|--8-8-8-8-8-8-8-8---77777777--33333333--|
|----------------------------------------|
   . . . . . . . .   ........  ........

(Guitar 2):
|-------------------------------------------------------------|
|-------------------------------------------------------------|
|-------------------------------------------------------------|
|-----6-5-6-5---6-5-6-5---6-5-6-5--6-5-6-5-6-5-6-5-6-5-6-5-6--|
|--8----------7---------3-------------------------------------|
|-------------------------------------------------------------|

Fill 3:
|-------------------|
|-------------------|
|-------------------|
|--9----------------|
|--7----------------|
|-------------------|
   l

Riff 6:
|----------------------------------------------------------|
|----------------------------------------------------------|
|----------------------------------------------------------|
|--9-9-8--8-8-8--9-9-8--8-8-8--5-5-4--4-4-4--5-5-4--4-4-4--|
|--7-7-7--7-7-7--7-7-7--7-7-7--3-3-3--3-3-3--3-3-3--3-3-3--|
|----------------------------------------------------------|

Riff 7:
|-----------------------------|
|-----------------------------|
|-----------------------------|
|--10-1010--9-99--5-55--5-55--|
|--8--8-8---7-77--3-33--3-33--|
|-----------------------------|
      . .     ..    ..    ..



Riff 8 (guitar 1):
|--------------------------------------------------------|
|--------------------------------------------------------|
|--------------------------------------------------------|
|--101010101010101010101010--999999999999--555555555555--|
|--8-8-8-8-8-8-8-8-8-8-8-8---777777777777--333333333333--|
|--------------------------------------------------------|

Guitar 2:
|-------------------------------------------------
|-------------------------------------------------
|-1010101010101010-999999999999-------------------
|-------------------------------1010101010101010--
|-------------------------------------------------
|-------------------------------------------------

       -------------------------------------------------------|
       -------------------------------------------------------|
       -1010101010101010-1212121212121212---------------------|
       -----------------------------------101010101010101010--|
       -------------------------------------------------------|
       -------------------------------------------------------|

Lyrics:

The quest for Azunda hath drawn near
The young king, the chaos he brings
With iron grip's sword, chants come forth
The child of dark is he

In prophecy, chaos not near
In chaos, prophecies begone
This child of dark, hath foreseen
He makes his own destiny

The magic he creates is from his will
The magic of Azunda, he shall receive
Iron grip's sword guides his path
To the place which is no more

The journey to this place is creation
In this creation, he shall be
Living for himself and his destiny
In his path, lies of the prophecies

In his mind he sees another
Who wishes to receive, Azunda
He sees light within in he's enemy
And laughs at the prophecy

His will and his and his word is his sorcery
He is waiting for thee
To put an end to this prophecy
Azunda, give your power to me

The child of dark has found thee
And now must destroy, evil thee
Iron grip's sword has gone through thee
Now, Azunda is mine for all to see

The King's task has been complete
The chaos has begun for all to see


                >>> ANY CORRECTIONS OR SUGGESTIONS ARE WELCOME <<<
comments
We did not receive enough feedback on this tab! Please rate:
print report bad tab
1 2 3 4 5
I want to post or [tab]
guest
You may want to rate the tab now too:
select rating
Please do not post tabs as comments. Select "correction" instead!