Oops, an error
Loading. Please wait.

Chosen Legacy Tab

ver2
ver2

Whole song

Interactive

More versions @911Tabs.com
2,832 views 6 this week
no commentswrite comment
1 2 3 4 5
excellent!
x 1
add to favorites launch autoscroll
font size
0
reset
Autoscroll
+/-
esc
set tempo
stop
Contributor
Difficulty
Tuning
intermediate
D G C F A D
WARNING: You are trying to view
                                    content from Ultimate-Guitar.com
                                    in an unauthorized application,
                                    which is prohibited.

                                    Please use an official Ultimate
                                    Guitar Tabs application for iPhone,
                                    iPad or Android to access legitimate
                                    chords, guitar, bass, and drum tabs
                                    from Ultimate-Guitar.com database.

                                    Type "ultimate guitar tabs" in Apple
                                    App Store's or Android Market's
                                    search to find the application.
Riff A

D|--------------------------------------------------|
A|--------------------------------------------------|
F|--------------------------------------------------|Guitar 1
C|--------------------------------------------------|
G|-\11----10------8------7----8----10----88101088---|(those are 10s)
D|-----00----0000---0000---00---00----00------------|
PM     ..    ....   ....   ..   ..    .. ........


D|-------------------------------------------|
A|-------------------------------------------|
F|-------------------------------------------|Guitar 1
C|-------------------------------------------|
G|-11----10------8------7----8----666666-----|
D|----00----0000---0000---00---00------------|
PM    ..    ....   ....   ..   ..

D|-------------------------------------------|
A|-------------------------------------------|
F|-------------------------------------------|Guitar 2
C|-------------------------------------------|
G|-11----10------8------7----8----999999-----|
D|----00----0000---0000---00---00------------|
PM    ..    ....   ....   ..   ..

Riff a1

D|--------------------------------------------------|
A|--------------------------------------------------|
F|--------------------------------------------------|both guitars
C|--------------------------------------------------|
G|-\11----10------8------7----8----10----88101088---|(those are 10s)
D|-----00----0000---0000---00---00----00------------|
PM     ..    ....   ....   ..   ..    .. ........

D|-------------------------------------------|
A|-------------------------------------------|
F|-------------------------------------------|both guitars
C|-------------------------------------------|
G|-11----10------8------7----8----9----------|
D|----00----0000---0000---00---00------------|
PM    ..    ....   ....   ..   ..


Riff B

D|--------------------------------------------------|
A|--------------------------------------------------|
F|--------------------------------------------------|Both Guitars
C|--------------------------------------------------|
G|--------------------------------------88101088----|
D|-0000000000000000000000000000000000000------------|
PM .............................................

D|------------------------------------------|
A|------------------------------------------|
F|------------------------------------------|
C|------------------------------------------|Guitar 1
G|--11--10-----------------------999999-----|
D|----00----000000000000000000000-----------|
PM    ..    .....................

D|------------------------------------------|
A|------------------------------------------|
F|------------------------------------------|
C|------------------------------------------|Guitar 2
G|--11--10-----------------------666666-----|
D|----00---000000000000000000000------------|
PM    ..    .....................


D|--------------------------------------------------|
A|--------------------------------------------------|
F|--------------------------------------------------|Both Guitars
C|--------------------------------------------------|
G|-11--10--------------------------------88101088---|
D|---00----0000000000000000000000000000000----------|
PM   ..    .......................................


D|------------------------------------------|
A|------------------------------------------|
F|------------------------------------------|
C|------------------------------------------|Guitar 1
G|--11--10-----------------------999999-----|
D|----00----000000000000000000000-----------|
PM    ..    .....................

D|------------------------------------------|
A|------------------------------------------|
F|------------------------------------------|
C|------------------------------------------|Guitar 2
G|--11--10-----------------------666666-----|
D|----00---000000000000000000000------------|
PM    ..    .....................

Riff A

D|--------------------------------------------------|
A|--------------------------------------------------|
F|--------------------------------------------------|Guitar 1
C|--------------------------------------------------|
G|-\11----10------8------7----8----10----88101088---|(those are 10s)
D|-----00----0000---0000---00---00----00------------|
PM     ..    ....   ....   ..   ..    .. ........


D|-------------------------------------------|
A|-------------------------------------------|
F|-------------------------------------------|Guitar 1
C|-------------------------------------------|
G|-11----10------8------7----8----666666-----|
D|----00----0000---0000---00---00------------|
PM    ..    ....   ....   ..   ..

D|-------------------------------------------|
A|-------------------------------------------|
F|-------------------------------------------|Guitar 2
C|-------------------------------------------|
G|-11----10------8------7----8----999999-----|
D|----00----0000---0000---00---00------------|
PM    ..    ....   ....   ..   ..


D|----------------------------------------------------------------|
A|----------------------------------------------------------------|
F|--------------------------------------------------|Guitar 1-----|
C|----------------------------------------------------------------|
G|-11----10------8------7----8----10----88101088---|(those are 10-|s)
D|----00----0000---0000---00---00----00---------------------------|
PM    ..    ....   ....   ..   ..    .. ........


D|---------------------------------|
A|---------------------------------|
F|---------------------------------|Guitar 1
C|---------------------------------|
G|-11----10------8------7----8-----|
D|----00----0000---0000---00-------|
PM    ..    ....   ....   ..

D|---------------------------------|
A|---------------------------------|
F|---------------------------------|Guitar 2
C|---------------------------------|
G|-11----10------8------7----8-----|
D|----00----0000---0000---00-------|
PM    ..    ....   ....   ..

Fill 1

D|--------------------------------------|
A|--------------------------------------|
F|--------------------------------------|
C|--------------------------------------|Guitar 1
G|--777777-666666------777777-666666/---|
D|--------------------------------------|

(the 10s are played with the 7s)
D|--------------------------------------------------|
A|--------------------------------------------------|
F|--------------------------------------------------|
C|--------------------------------------------------|Guitar 2
G|--101010101010-999999------101010101010-999999/---|
D|--------------------------------------------------|

Riff c1

  add light pinch harmonics to the notes under ^
D|------------------------------------------------------------|
A|------------------------------------------------------------|
F|-------------12------------11-------------12------------10--|
C|-------------9-------------8--------------9------------9----|Guitar 1
G|-------------7-------------6--------------7----------8------|
D|-00000-000000--00000-000000--00000-000000- -00000-00--------|
PM ..... ......  ..... ......  ..... ......   ..... .. ^ ^ ^

D|------------------------------------------------------------|
A|------------------------------------------------------------|
F|------------------------------------------------------------|Guitar 2
C|-2-------------------------------------------------------3--|
G|-2-----------------------------------------------------2----|
D|-0---------------------------------------------------1------|


  add light pinch harmonics to the notes under ^
D|------------------------------------------------------------|
A|------------------------------------------------------------|
F|-------------12------------11-------------12------------10--|
C|-------------9-------------8--------------9------------9----|Guitar 1
G|-------------7-------------6--------------7----------8------|
D|-00000-000000--00000-000000--00000-000000- -00000-00--------|
PM ..... ......  ..... ......  ..... ......   ..... .. ^ ^ ^

D|------------------------------------------------------------|
A|------------------------------------------------------------|
F|------------------------------------------------------------|Guitar 2
C|-2-------------------------------------------------------3--|
G|-2-----------------------------------------------------2----|
D|-0---------------------------------------------------1------|

(If its to much legato for you, you can tap the notes. Tap 8 then pull-off to 
etc.)

D|------------------------------------------------------------|
A|------------------------------------------------------------|
F|-7h8p7h8p7h8p7h8p7h8p7h8p7h8p7h8p7h8p7h8p7h8p7h8p7h8p7h8p7\-|Guitar 3
C|------------------------------------------------------------|
G|------------------------------------------------------------|
D|------------------------------------------------------------|

Riff D

D|----------------------------0------------------------------0-----|
A|-----------------------------4------------------------------3----|
F|---------------------4-----5--5---------------------5-----4--4---|both
C|-4s5-2h4-8-----9-----44444-5----4s5-2h4-8-----9-----55555-4------|guitars
G|-4s5-2h4-66666-77777-22222-3----4s5-2h4-66666-77777-33333-2------|
D|-2s3-0h2-66666-77777------------2s3-0h2-66666-77777--------------|
PM          ....  ....  ....               ....  ....  ....

D|----------------------------0------------------------------0-----|
A|-----------------------------4------------------------------3----|
F|---------------------4-----5--5---------------------5-----4--4---|both
C|-4s5-2h4-8-----9-----44444-5----4s5-2h4-8-----9-----55555-4------|guitars
G|-4s5-2h4-66666-77777-22222-3----4s5-2h4-66666-77777-33333-2------|
D|-2s3-0h2-66666-77777------------2s3-0h2-66666-77777--------------|
PM          ....  ....  ....               ....  ....  ....

D|-------------------0---------------------0----|
A|--------------------4---------------------3---|
F|---------8--9--4--5--5---------8--9--5--4--4--|both guitars
C|-4s5-2s4-8--9--4--5----4s5-2h4-8--9--5--4-----|
G|-4s5-2s4-6--7--2--3----4s5-2h4-6--7--3--2-----|
D|-2s3-0s2-6--7----------2s3-0h2-6--7-----------|

D|-------------------0--------------------------|
A|--------------------4-------------------------|
F|---------8--9--4--5--5---------8--9--5--4-----|both guitars
C|-4s5-2h4-8--9--4--5----4s5-2h4-8--9--5--4-----|
G|-4s5-2h4-6--7--2--3----4s5-2h4-6--7--3--2-----|
D|-2s3-0h2-6--7----------2s3-0h2-6--7-----------|

D|----------------------------0------------------------------0-----|
A|-----------------------------4------------------------------3----|
F|---------------------4-----5--5---------------------5-----4--4---|both
C|-4s5-2h4-8-----9-----44444-5----4s5-2h4-8-----9-----55555-4------|guitars
G|-4s5-2h4-66666-77777-22222-3----4s5-2h4-66666-77777-33333-2------|
D|-2s3-0h2-66666-77777------------2s3-0h2-66666-77777--------------|
PM          ....  ....  ....               ....  ....  ....

D|----------------------------0------------------------------0-----|
A|-----------------------------4------------------------------3----|
F|---------------------4-----5--5---------------------5-----4--4---|both
C|-4s5-2h4-8-----9-----44444-5----4s5-2h4-8-----9-----55555-4------|guitars
G|-4s5-2h4-66666-77777-22222-3----4s5-2h4-66666-77777-33333-2------|
D|-2s3-0h2-66666-77777------------2s3-0h2-66666-77777--------------|
PM          ....  ....  ....               ....  ....  ....

Riff C play twice

 add light pinch harmonics to the notes under ^
D|------------------------------------------------------------|
A|------------------------------------------------------------|
F|-------------12------------11-------------12------------10--|
C|-------------9-------------8--------------9------------9----|Guitar 1
G|-------------7-------------6--------------7----------8------|
D|-00000-000000--00000-000000--00000-000000- -00000-00--------|
PM ..... ......  ..... ......  ..... ......   ..... .. ^ ^ ^

D|------------------------------------------------------------|
A|------------------------------------------------------------|
F|-------------12------------11-------------12----------------|
C|-------------9-------------8--------------9--------------3--|Guitar 1
G|-------------7-------------6--------------7------------2----|
D|-00000-000000--00000-000000--00000-000000- -00000-00-1------|
PM ..... ......  ..... ......  ..... ......   ..... .. ^ ^ ^

Riff E play 4 times

D|---------------------------------------------------------|
A|---------------------------------------------------------|
F|------------12-----------11-----------12-----------------|
C|------------9------------8------------9-------------3----|
G|------------7------------6------------7-----------2------|
D|-0-00000000---0-00000000---0-00000000----0-0000-1--------|
PM . ........   . ........   . ........    . ....

D|---------------------------------------------------------|
A|---------------------------------------------------------|
F|------------12-----------11-----------12------------10---|
C|------------9------------8------------9-----------9------|
G|------------7------------6------------7---------8--------|
D|-0-00000000---0-00000000---0-00000000----0-0000----------|
PM . ........   . ........   . ........    . .... ^ ^ ^

D|---------------------------------------------3------------|
A|---------------------------------------------3------------|
F|---------------------------------------------3------------|guitar 1
C|-----4-----4-----4-------------4-----4-----4-5---------3--|
G|-----4-----4-----4-----5-7-----4-----4-----4-5--------2---|
D|-22222-22222-22222-320-3-5-22222-22222-22222-3-------1----|
PM ....  ....  ....  ... . . ....  ....  ....  ^depress whammy bar slightly
                                                and let ring

D|---------------------------------------------3------------|
A|---------------------------------------------3------------|
F|---------------------------------------------3---------10-|guitar 2
C|-----4-----4-----4-------------4-----4-----4-5--------9---|
G|-----4-----4-----4-----5-7-----4-----4-----4-5-------8----|
D|-22222-22222-22222-320-3-5-22222-22222-22222-3------------|
PM ....  ....  ....  ... . . ....  ....  ....  ^depress whammy bar slightly
                                                and let ring

D|--------------------------3-----------|
A|--------------------------3-----------|
F|--------------------------3-----------|
C|-4----------------4-------5--------3--|Guitar 1
G|-4-----------5-7--4-------5-------2---|
D|-2-------320-3-5--2-------3------1----|
PM         ... . .          ^depress whammy bar and let ring

D|--------------------------3-----------|
A|--------------------------3-----------|
F|--------------------------3--------10-|
C|-4----------------4-------5-------9---|Guitar 1
G|-4-----------5-7--4-------5------8----|
D|-2-------320-3-5--2-------3-----------|
PM         ... . .          ^depress whammy bar and let ring


D|---------------------------------------------3------------|
A|---------------------------------------------3------------|
F|---------------------------------------------3------------|guitar 1
C|-----4-----4-----4-------------4-----4-----4-5---------3--|
G|-----4-----4-----4-----5-7-----4-----4-----4-5--------2---|
D|-22222-22222-22222-320-3-5-22222-22222-22222-3-------1----|
PM ....  ....  ....  ... . . ....  ....  ....  ^depress whammy bar slightly
                                                and let ring

D|---------------------------------------------3------------|
A|---------------------------------------------3------------|
F|---------------------------------------------3---------10-|guitar 2
C|-----4-----4-----4-------------4-----4-----4-5--------9---|
G|-----4-----4-----4-----5-7-----4-----4-----4-5-------8----|
D|-22222-22222-22222-320-3-5-22222-22222-22222-3------------|
PM ....  ....  ....  ... . . ....  ....  ....  ^depress whammy bar slightly
                                                and let ring


D|------------------------------|
A|------------------------------|
F|-4------4--5--4------5--4-----|
C|-2------4--5--2------5--4-----|both guitars
G|-2------2--3--2------3--2-----|
D|-0------------0---------------|

D|------------------------------|
A|------------------------------|
F|-4------4--5--4------5--4-----|both guitars
C|-2------4--5--2------5--4-----|
G|-2------2--3--2------3--2-----|
D|-0------------0---------------|

D|----------------------------0------------------------------0-----|
A|-----------------------------4------------------------------3----|
F|---------------------4-----5--5---------------------5-----4--4---|both
C|-4s5-2h4-8-----9-----44444-5----4s5-2h4-8-----9-----55555-4------|guitars
G|-4s5-2h4-66666-77777-22222-3----4s5-2h4-66666-77777-33333-2------|
D|-2s3-0h2-66666-77777------------2s3-0h2-66666-77777--------------|
PM          ....  ....  ....               ....  ....  ....

D|----------------------------0------------------------------0-----|
A|-----------------------------4------------------------------3----|
F|---------------------4-----5--5---------------------5-----4--4---|both
C|-4s5-2h4-8-----9-----44444-5----4s5-2h4-8-----9-----55555-4------|guitars
G|-4s5-2h4-66666-77777-22222-3----4s5-2h4-66666-77777-33333-2------|
D|-2s3-0h2-66666-77777------------2s3-0h2-66666-77777--------------|
PM          ....  ....  ....               ....  ....  ....

D|----------------------------0------------------------------0-----|
A|-----------------------------4------------------------------3----|
F|---------------------4-----5--5---------------------5-----4--4---|both
C|-4s5-2h4-8-----9-----44444-5----4s5-2h4-8-----9-----55555-4------|guitars
G|-4s5-2h4-66666-77777-22222-3----4s5-2h4-66666-77777-33333-2------|
D|-2s3-0h2-66666-77777------------2s3-0h2-66666-77777--------------|
PM          ....  ....  ....               ....  ....  ....

D|----------------------------0------------------------------0-----|
A|-----------------------------4------------------------------3----|
F|---------------------4-----5--5---------------------5-----4--4---|both
C|-4s5-2h4-8-----9-----44444-5----4s5-2h4-8-----9-----55555-4------|guitars
G|-4s5-2h4-66666-77777-22222-3----4s5-2h4-66666-77777-33333-2------|
D|-2s3-0h2-66666-77777------------2s3-0h2-66666-77777--------------|
PM          ....  ....  ....               ....  ....  ....

  add light pinch harmonics to the notes under ^
D|------------------------------------------------------------|
A|------------------------------------------------------------|
F|-------------12------------11------------12------------10---|
C|-------------9-------------8-------------9-----------9------|Guitar 1
G|-------------7-------------6-------------7---------8--------|
D|-00000000000---00000000000---00000000000---0000000----------|
PM ...........   ...........   ...........   ....... ^ ^ ^


D|------------------------------------------------------------|
A|------------------------------------------------------------|
F|-------------12------------11------------12-----------------|
C|-------------9-------------8-------------9-------------3----|Guitar 1
G|-------------7-------------6-------------7-----------2------|
D|-00000000000---00000000000---00000000000---0000000-1--------|
PM ...........   ...........   ...........   ....... ^ ^ ^

end with

D|-------|
A|-------|
F|-------|
C|-2-----|
G|-2-----|
D|-0-----|
comments
We did not receive enough feedback on this tab! Please rate:
print report bad tab
1 2 3 4 5
I want to post or [tab]
guest
You may want to rate the tab now too:
select rating
Please do not post tabs as comments. Select "correction" instead!