Oops, an error
Loading. Please wait.

Death Cult Armageddon Tab

5,472 views 3 this week
3 commentsread comments
1 2 3 4 5
accurate
x 3
add to favorites launch autoscroll
font size
0
reset
Autoscroll
+/-
esc
set tempo
stop
Contributor
WARNING: You are trying to view
                                    content from Ultimate-Guitar.com
                                    in an unauthorized application,
                                    which is prohibited.

                                    Please use an official Ultimate
                                    Guitar Tabs application for iPhone,
                                    iPad or Android to access legitimate
                                    chords, guitar, bass, and drum tabs
                                    from Ultimate-Guitar.com database.

                                    Type "ultimate guitar tabs" in Apple
                                    App Store's or Android Market's
                                    search to find the application.
Key_________________

.  - palm mute           /  - slide up to
\  - slide down to       ~  - vibrato
h  - hammer on           b  - Bend
p  - pull off            Suffixes for bend
t  - tap                 f  - full bend    h - half bend
ph - pinched harmonic    q  - quarter bend t - tap bend
*  - see comment         ^  - Hold bend    r release bend
x  - Stuccatto           ~  - vibrato bend
,  - slight palm mute    () - ghost note, sustained note
"  - tremolo note        <> - Trill

=========================================

1. Allegiance

Tunning E A D G B E


Intro


|-----------------------------------|
|-----------------------------------|
|-10----10----10-------4------------|
|-8--8--9--8--8--8--9--4------------| x4
|-8--8--8--8--8--8--8--2------------|
|-----------------------------------|

|-----------------------------------|
|-----------------------------------|
|-8\7-7-7-7/8-8\7-7-3/4(\3)---------|
|-8\7-7-7-7/8-8\7-7-3/4(\3)---------|
|-6\5-5-5-5/6-6\5-5-1/2(\1)---------|
|-----------------------------------|

|-----------------------------------|
|-----------------------------------|
|-8\7-7-7-7/8-8-8-8-8---------------|
|-8\7-7-7-7/8-8-8-8-8---------------|
|-6\5-5-5-5/6-6-6-6-6---------------|
|-----------------------------------|



Main part
|-----------------------------------|
|-----------------------------------|
|------------------8----------------|
|-4-3--4-3-4--8-88-8----------------|
|-2-1--2-1-2--6-66-6----------------|
|-----------------------------------|
  . .  . . .  . ..

|--------------------------------------------------------------|
|--------------------------------------------------------------|
|---------------------------------------------777777777777-----|
|-99998888888888888888888888888888999988889999777777777777-----| Gtr I
|-99998888888888888888888888888888999988889999555555555555-----|
|-77776666666666666666666666666666777766667777------------6677-|
|
|--------------------------------------------------------------|
|--------------------------------------------------------------|
|---------------------------------------------777777777777-----|
|-99998888888888888888888888888888999988889999------------8899-| Gtr II
|--------------------------------------------------------------|
|--------------------------------------------------------------|

|--------------------------------------------------------------|
|--------------------------------------------------------------|
|--------------------------------------------------------------|
|-9999888888888888888888888888888899998888999922222222222222222| Gtr I
|-7777666666666666666666666666666677778888777722222222222222222|
|-7777666666666666666666666666666677778888777700000000000000000|
|
|--------------------------------------------------------------|
|--------------------------------------------------------------|
|--------------------------------------------------------------|
|-99998888888888888888888888888888999988889999-----------------| Gtr II
|---------------------------------------------77777777777777777|
|--------------------------------------------------------------|

When vocals start and blast beat ends, play the same thing with open chords



2:05
  B5      G5   A5
|-----------------------------------|
|-----------------------------------|
|-----7-----------------------------|
|---9---9---5--/7-5-----------------| x4
|--9-------5------------------------|
|-7-------3-------------------------|


|-------------------------------------------|
|-------------------------------------------|
|-------------------------------------------|
|-----7-----7----------7-------7h8p7h8p7h8--|
|-5-5---5-5---5-55-4-4---4---8--------------|
|--------------------------6----------------|
  . .   . .   . .. . .   . .


2:50
|-------------------------------------|
|------7--------7--------7------------|
|-8--9---8-8--9---8-8--9---8----9-----|
|-8--------8--------8--------9--9-11--|
|-6--------6--------6--------9--7-11--|
|----------------------------7----9---|


3:37
|-----------------------------------------------------------------------------
|-----------------------------------------------------------------------------
|----------------------------------------------------------7777101010109999---
|----------------------------------------------777710101010-------------------
|-7-7-7-7-7-7-7-7-7-7-7-7-7-7-7-7-7-7--77778888-------------------------------
|-----------------------------------------------------------------------------
  . . . . . . . . . . . . . . . . . .
|-----------------------------------------------------------------------------
|-----------------------------------------------------------------------------
|----------------------------------------------------------7777101010109999---
|----------------------------------------------777710101010-------------------
|-7-7-7-7-7-7-7-7-7-7-7-7-7-7-7-7-7-7--77778888-------------------------------
|-----------------------------------------------------------------------------
  . . . . . . . . . . . . . . . . . .
|-----------------------------------------------------------------------------
|-----------------------------------------------------------------------------
|----------------------------------------------------------7777101010109999---
|----------------------------------------------777710101010-------------------
|-7-77777-77777-77777-77777-77777-7777-77778888-------------------------------
|-----------------------------------------------------------------------------
  . ..... ..... ..... ..... ..... ....
|-----------------------------------------------------------------------------
|-----------------------------------------------------------------------------
|----------------------------------------------------------7777101010109999---
|----------------------------------------------777710101010-------------------
|-7-7-7-7-7-7-7-7-7-7-7-7-7-7-7-7-7-7--77778888-------------------------------
|-----------------------------------------------------------------------------
  . . . . . . . . . . . . . . . . . .

Extra gtr plays continuously something like this at the background

|-----------------------------------|
|-----------------------------------|
|---9-10-11-10-9--------------------|
|-9---------------------------------|
|-----------------------------------|
|-----------------------------------|



Next comes the main part again and after that
|------------------------------------------------|
|------------------------------------------------|
|------------------------------------------------|
|------------------------------------------------|
|----------9-7-9-7-9----------9-7-9-7-9----------|
|-777777777---7---7--777777777---7---7-----------|
  .........   .   .  .........   .   .

|------------------------------------------------|
|------------------------------------------------|
|------------------------------------8---8-------|
|------------------------------------8---8-------|
|----------10-8-10-8-10------------6-6-6-6-------|
|-888888888----8----8--888888888-----------------|
  .........    .    .  .........   .   .




The melody at the end goes something like this
|-------------------------------------|
|-------------------------------------|
|-9-10---------11-9-------11-9-----11-|
|-----10-9-9-9-----10-9-9------9-9----|
|-------------------------------------|
|-------------------------------------|
           . .        . .      . .

|-------------------------------------|
|-------------------------------------|
|-9-10---------11-9-------11-9-----11-|
|-----10-9-9-9-----10-9-9------9-9----|
|-------------------------------------|
|-------------------------------------|
           . .        . .      . .

|-------------------------------------------|
|-------------------------------------------|
|-10-12----------12-10--------12-10------12-|
|------10-9-10-10------9-10-10------10-10---|
|-------------------------------------------|
|-------------------------------------------|
             . .          . .       . .

|-------------------------------------------|
|-------------------------------------------|
|-10-12----------12-10--------12-10------12-|
|------10-9-10-10------9-10-10------10-10---|
|-------------------------------------------|
|-------------------------------------------|
             . .          . .       . .


|------------------------------------------------|
|------------------------------------------------|
|------------------------------------------------|
|------------------------------------------------|
|----------9-7-9-7-9----------9-7-9-7-9----------|
|-777777777---7---7--777777777---7---7-----------|
  .........   .   .  .........   .   .

|------------------------------------------------|
|------------------------------------------------|
|------------------------------------8---8-------|
|------------------------------------8---8-------|
|----------10-8-10-8-10------------6-6-6-6-------|
|-888888888----8----8--888888888-----------------|
  .........    .    .  .........   .   .

|------------------------------------------------|
|------------------------------------------------|
|------------------------------------------------|
|------------------------------------------------|
|----------9-7-9-7-9----------9-7-9-7-9----------|
|-777777777---7---7--777777777---7---7-----------|
  .........   .   .  .........   .   .

|------------------------------------------------|
|------------------------------------------------|
|------------------------------------------------|
|------------------------------------------------|
|----------10-8-10-8-10--------------------------|
|-888888888----8----8--888888888-----------------|
  .........    .    .  .........


|-----------------------------------|
|-----------------------------------|
|-8--8--8---------------------------|
|-8--8--8--8-5-5-4------------------|
|-6--6--6--6-3-3-2------------------|
|-----------------------------------|
           . . . .




2. Progenies Of The Great Apocalypse


they use 7 stringed guitars for this, but I tabbed it for a 6 stringed
guitar, so some of the riffs may be taken an octave lower.


(16x)
E-------------------|
B-------------------|
G-8-8-8-8-----------|
D-8-8-8-8-----------|
A-6-6-6-6-----------|
E-6-6-6-6-----------|



verse

E---------------------------------------------------|
B---------------------------------------------------|
G---------------------------------------------------|
D---------------------------------------------------|
A-4-------------------------------7-----------------|
E-2-222-222-222-222-222-222-222-225-555-555-555-555-|



E---------------------------------------------------|
B---------------------------------------------------|
G---------------------------------------------------|
D---------------------------------------------------|
A--15--15-15-15-14--14-14-14-12--12-12-12-11--11-11-|
E-/13--13-13-13\12--12-12-12\10--10-10-10\9---9--9--|



E---------------------------------------------------|
B---------------------------------------------------|
G---------------------------------------------------|
D---------------------------------------------------|
A-4-------------------------------8-----------------|
E-2-222-222-222-222-222-222-222-226-666-666-666-666-|



E---------------------------------------------------|
B---------------------------------------------------|
G---------------------------------------------------|
D---------------------------------------------------|
A--11--11-11-11-10--10-10-10-8--8-8-8\7--7-7--------|
E-/9---9--9--9-\8---8--8--8-\6--6-6-6-5--5-5--------|



E---------------------------------------------------|
B---------------------------------------------------|
G---------------------------------------------------|
D---------------------------------------------------|
A-4-------------------------------7-----------------|
E-2-222-222-222-222-222-222-222-225-555-555-555-555-|



E---------------------------------------------------|
B---------------------------------------------------|
G---------------------------------------------------|
D---------------------------------------------------|
A--15--15-15-15-14--14-14-14-12--12-12-12-11--11-11-|
E-/13--13-13-13\12--12-12-12\10--10-10-10\9---9--9--|



E---------------------------------------------------|
B---------------------------------------------------|
G---------------------------------------------------|
D---------------------------------------------------|
A-4-------------------------------8-------8-------8-|
E-2-222-222-222-222-222-222-222-226-----666-----666-|



E---------------------------------------------------|
B---------------------------------------------------|
G---------------------------------------------------|
D---------------------------------------------------|
A---8---8---8---------------------------------------|
E-666-666-666---------------------------------------|



E---------------------------------------------------|
B---------------------------------------------------|
G---------------------------------------------------|
D---------------------------------------------------|
A-4-------------------------------7-----------------|
E-2222222222222222222222222222222255555555555555555-|



E---------------------------------------------------|
B---------------------------------------------------|
G---------------------------------------------------|
D---------------------------------------------------|
A--15--15-15-15-14--14-14-14-12--12-12-12-11--11-11-|
E-/13--13-13-13\12--12-12-12\10--10-10-10\9---9--9--|



E---------------------------------------------------|
B---------------------------------------------------|
G---------------------------------------------------|
D---------------------------------------------------|
A-4-------------------------------8-----------------|
E-2222222222222222222222222222222266666666666666666-|



E---------------------------------------------------|
B---------------------------------------------------|
G---------------------------------------------------|
D---------------------------------------------------|
A--11--11-11-11-10--10-10-10-8--8-8-8\7--7-7--------|
E-/9---9--9--9-\8---8--8--8-\6--6-6-6-5--5-5--------|



E---------------------------------------------------|
B---------------------------------------------------|
G---------------------------------------------------|
D---------------------------------------------------|
A-4-------------------------------7-----------------|
E-2222222222222222222222222222222255555555555555555-|



E---------------------------------------------------|
B---------------------------------------------------|
G---------------------------------------------------|
D---------------------------------------------------|
A--15--15-15-15-14--14-14-14-12--12-12-12-11--11-11-|
E-/13--13-13-13\12--12-12-12\10--10-10-10\9---9--9--|



E---------------------------------------------------|
B---------------------------------------------------|
G---------------------------------------------------|
D---------------------------------------------------|
A-4-------------------------------8-------8-------8-|
E-222222222222222222222222222222226-----666-----666-|



E---------------------------------------------------|
B---------------------------------------------------|
G---------------------------------------------------|
D---------------------------------------------------|
A---8---8---8---------------------------------------|
E-666-666-666---------------------------------------|



(16x)
E-------------------|
B-------------------|
G-8-8-8-8-----------|
D-8-8-8-8-----------|
A-6-6-6-6-----------|
E-6-6-6-6-----------|



E---------------------------------------------------|
B---------------------------------------------------|
G---------------------------------------------------|
D---------------------------------------------------|
A-4-------------------------------7-----------------|
E-2222222222222222222222222222222255555555555555555-|



E---------------------------------------------------|
B---------------------------------------------------|
G---------------------------------------------------|
D---------------------------------------------------|
A--15--15-15-15-14--14-14-14-12--12-12-12-11--11-11-|
E-/13--13-13-13\12--12-12-12\10--10-10-10\9---9--9--|



E---------------------------------------------------|
B---------------------------------------------------|
G---------------------------------------------------|
D---------------------------------------------------|
A-4-------------------------------8-----------------|
E-2222222222222222222222222222222266666666666666666-|



E---------------------------------------------------|
B---------------------------------------------------|
G---------------------------------------------------|
D---------------------------------------------------|
A--11--11-11-11-10--10-10-10-8--8-8-8\7--7-7--------|
E-/9---9--9--9-\8---8--8--8-\6--6-6-6-5--5-5--------|



E---------------------------------------------------|
B---------------------------------------------------|
G---------------------------------------------------|
D---------------------------------------------------|
A-4-------------------------------7-----------------|
E-2222222222222222222222222222222255555555555555555-|



E---------------------------------------------------|
B---------------------------------------------------|
G---------------------------------------------------|
D---------------------------------------------------|
A--15--15-15-15-14--14-14-14-12--12-12-12-11--11-11-|
E-/13--13-13-13\12--12-12-12\10--10-10-10\9---9--9--|



E---------------------------------------------------|
B---------------------------------------------------|
G---------------------------------------------------|
D---------------------------------------------------|
A-4-------------------------------8-------8-------8-|
E-222222222222222222222222222222226-----666-----666-|



E---------------------------------------------------|
B---------------------------------------------------|
G---------------------------------------------------|
D---------------------------------------------------|
A---8---8---8---------------------------------------|
E-666-666-666---------------------------------------|



(you'll have to listen closely to the cd
for the exact timing here on out)

E---------------------------------------------------|
B---------------------------------------------------|
G-6~-------4-6-7-6-7-6-4~---------------------------|
D-6~-------4-6-7-6-7-6-4~---------------------------|
A-4~-------2-4-5-4-5-4-2~---------------------------|
E-4~-------2-4-5-4-5-4-2~---------------------------|



E---------------------------------------------------|
B---------------------------------------------------|
G-6~-------4-6-7-6-7-6-11~-----12~------------------|
D-6~-------4-6-7-6-7-6-11~-----12~------------------|
A-4~-------2-4-5-4-5-4-9~------10~------------------|
E-4~-------2-4-5-4-5-4-9~------10~------------------|



E---------------------------------------------------|
B---------------------------------------------------|
G-6~-------4-6-7-6-7-6-4~---------------------------|
D-6~-------4-6-7-6-7-6-4~---------------------------|
A-4~-------2-4-5-4-5-4-2~---------------------------|
E-4~-------2-4-5-4-5-4-2~---------------------------|



E---------------------------------------------------|
B---------------------------------------------------|
G-6~-------4-6-7-6-7-6-11~-----12~------------------|
D-6~-------4-6-7-6-7-6-11~-----12~------------------|
A-4~-------2-4-5-4-5-4-9~------10~------------------|
E-4~-------2-4-5-4-5-4-9~------10~------------------|



well, since he uses a 7 string, the c# and b would be an octave lower

E--------------------------------------------------------|
B--------------------------------------------------------|
G--------------------------------------------------------|
D--------------------------------------------------------|
A-444444444444--444444444444--222222222222--222222222222-|
E--------------------------------------------------------|



E--------------------------------------------------------|
B--------------------------------------------------------|
G--------------------------------------------------------|
D--------------------------------------------------------|
A-444444444444--444444444444-----------------------------|
E-----------------------------222222222222--333333333333-|



E---------------------------------------------------------|
B---------------------------------------------------------|
G---------------------------------------------------------|
D-6-6-6---------------6-66--6---------------4-4-4---------|
A-4-4-4--444444444444-4-44--4-444444444444--2-2-2---------|
E-4-4-4---------------4-44--4---------------2-2-2---------|



E---------------------------------------------------------|
B---------------------------------------------------------|
G---------------------------------------------------------|
D---------------4-44--4-------------------6-6-6-----------|
A-222222222222--2-22--2-2222222222222222--4-4-4-----------|
E---------------2-22--2-------------------4-4-4-----------|



E---------------------------------------------------------|
B---------------------------------------------------------|
G---------------------------------------------------------|
D--------------6-66--6---------------4-4-4----------------|
A-444444444444-4-44--4-444444444444--2-2-2----------------|
E--------------4-44--4---------------2-2-2--222222222222--|



E---------------------------------------------------------|
B---------------------------------------------------------|
G---------------------------------------------------------|
D-5-55--5-------------------------------------------------|
A-3-33--3-------------------------------------------------|
E-3-33--3-333333333333------------------------------------|


.........Orchestra interlude....



E--------------------------------------------------------|
B--------------------------------------------------------|
G--------------------------------------------------------|
D-666666666666666666666666666444444444444444444444444444-|
A-444444444444444444444444444222222222222222222222222222-|
E-444444444444444444444444444222222222222222222222222222-|



E--------------------------------------------------------|
B--------------------------------------------------------|
G--------------------------------------------------------|
D-666666666666666666666666666444444444444444444444444444-|
A-444444444444444444444444444222222222222222222222222222-|
E-444444444444444444444444444222222222222222222222222222-|



E-------------------------------------------------------------------------|
B-------------------------------------------------------------------------|
G-------------------------------------------------------------------------|
D-6--6--6--6--6-6--6-6--6--6--6-6--6-6-4--4--4--4--4-4--4-4--4--4--4-4--4-|
A-4--4--4--4--4-4--4-4--4--4--4-4--4-4-2--2--2--2--2-2--2-2--2--2--2-2--2-|
E-4--4--4--4--4-4--4-4--4--4--4-4--4-4-2--2--2--2--2-2--2-2--2--2--2-2--2-|



E-------------------------------------------------------------------------|
B-------------------------------------------------------------------------|
G-------------------------------------------------------------------------|
D-6--6--6--6--6-6--6-6--6--6--6-6--6-6-4--4--4----4--4--4-----------------|
A-4--4--4--4--4-4--4-4--4--4--4-4--4-4-2--2--2----2--2--2-----------------|
E-4--4--4--4--4-4--4-4--4--4--4-4--4-4-2--2--2----2--2--2-----------------|



(16x)
E-------------------|
B-------------------|
G-8-8-8-8-----------|
D-8-8-8-8-----------|
A-6-6-6-6-----------|
E-6-6-6-6-----------|




3. Lepers Among Us

Tunning E A D G B E

Intro
|-------------------------------------------------------------------|
|-------------------------------------------------------------------|
|-------------------------------------------------------------------|
|-------------------------------------9/x---------------------------|
|-------------------------------------7/x---------------------------|
|-222222222-2222222---222222222-2222--7/x---------------------------|
  ......... .......   ......... ....                        (2 times)

Riff 1
Gtr 1
|-------------------------------------------------------------------|
|-------------------------------------------------------------------|
|-------------------6-----------------------------------------------|
|----4---5------4-----4-----5/x-------------------------------------|
|----------4----------------3/x-------------------------------------|
|-22---2-----22---2-------------------------------------------------|
  ..   .     ..   .
|-------------------------------------------------------------------|
|-------------------------5-----------------------------------------|
|-------------------6-------6---------------------------------------|
|----4---5------4-----4-------5-------------------------------------|
|----------4--------------------------------------------------------|
|-22---2-----22---2-----2-------------------------------------------|
  ..   .     ..   .     .

Gtr 2
|-------------------------------------------------------------------|
|-------------------------------------------------------------------|
|-------------------------------------------------------------------|
|-------------5/x-----------------9/x-------------------------------|
|-------------3/x-----------------7/x-------------------------------|
|-22222-2222----------22222-2222--7/x-------------------------------|
  ..... ....          ..... ....                            (4 times)

Riff 2
|-------------------------------------------------------------------|
|-------------------------------------------------------------------|
|-------9/x---------9\10-10-10-10/8-8-8-----------------------------|
|-2-----9/x---2-----9\10-10-10-10/8-8-8-----------------------------|
|-2-----7/x---2-----7\-8--8--8--8/6-6-6-----------------------------|
|-0-00--7/x---0-00--7\-8--8--8--8/6-6-6-----------------------------|
    ..          ..
|-------------------------------------------------------------------|
|-------------------------------------------------------------------|
|-------9/x---------9\10-10/x---------------------------------------|
|-2-----9/x---2-----9\10-10/x---------------------------------------|
|-2-----7/x---2-----7\-8--8/x---------------------------------------|
|-0-00--7/x---0-00--7\-8--8/x---------------------------------------|
    ..          ..                                          (2 times)

Play Riff 1 4 times
Play Riff 2 1 time then

Fill 1
|-------------------------------------------------------------------|
|-------------------------------------------------------------------|
|-------9/x----------9\10-10-10-10/8-8-8----------------------------|
|-2-----9/x----2-----9\10-10-10-10/8-8-8----------------------------|
|-2-----7/x----2-----7\-8--8--8--8/6-6-6----------------------------|
|-0-00--7/x----0-00--7\-8--8--8--8/6-6-6----------------------------|
    ..           ..

|-------------------------------------------------------------------|
|-------------------------------------------------------------------|
|----------9/x---------9\10-10/x------------------------------------|
|-2--------9/x---2-----9\10-10/x------------------------------------|
|-2--------7/x---2-----7\-8--8/x------------------------------------|
|-0-0-0-0--7/x---0-00--7\-8--8/x------------------------------------|
    . . .          ..                                       (1 time)

Riff 3
Gtr 1?

Gtr 2
|-------------------------------------------------------------------|
|-------------------------------------------------------------------|
|-------------------------------------------------------------------|
|-------------------------------------------------------------------|
|----------------------------666666---------------------------------|
|-0000000000000000-6666-8888----------------------------------------|

|-------------------------------------------------------------------|
|-------------------------------------------------------------------|
|-------------------------------------------------------------------|
|-------------------------------------------------------------------|
|--------------------------7h8p7h8p7h8p7----------------------------|
|-11111111111111111-888888------------------------------------------|

|-------------------------------------------------------------------|
|-------------------------------------------------------------------|
|-------------------------------------------------------------------|
|-------------------------------------------------------------------|
|-----------------------------666666--------------------------------|
|-00000000000000000-6666-8888---------------------------------------|

|-------------------------------------------------------------------|
|-------------------------------------------------------------------|
|-------------------------------------------------------------------|
|-------------------------------------------------------------------|
|-------------------------------------------------------------------|
|-11111111111111111-888888-666666-----------------------------------|
                                                            (2 times)

Riff 4
|-------------------------------------------------------------------|
|-------------------------------------------------------------------|
|--------------------------9/x-------------------9\10-10-10-10/8-8-8|
|--------------------------9/x-------------------9\10-10-10-10/8-8-8|
|--------------------------7/x-------------------7\-8--8--8--8/6-6-6|
|-0-0-0-0-000-000-0-0-0-0--7/x--1-1-1-1-111-111--7\-8--8--8--8/6-6-6|
  . . . . ... ... . . . .       . . . . ... ...             (4 times)

Play Riff 3 2 times then:

Transition
|-------------------------------------------------------------------|
|-------------------------------------------------------------------|
|-------------------------------------------------------------------|
|-5--7--6-----6----------7--6---------------------------------------|
|-5--5--4-----4----------5--4---------------------------------------|
|-3--5--4-4-4-4----------5--4---------------------------------------|
          . .

Riff 5
|-------------------------------------------------------------------|
|-------------------------------------------------------------------|
|-------------------------------------------------------------------|
|-7-7-7-6---5--7--6---7-7-7-6---5--7--6---7-7-7---------------------|
|-5-5-5-4---5--5--4---5-5-5-4---5--5--4---5-5-5---------------------|
|-5-5-5-4---3--5--4---5-5-5-4---3--5--4---5-5-5---------------------|

Riff 6a
Gtr 1
|-------------------------------------------------------------------|
|-------------------5h6p5-------------------------------------------|
|-------6h7p6-------------------6h7p6-------------------------------|
|--------------------------------------5--7-------------------------|
|-4-444-------4-444-------4-444--------5--5-------------------------|
|--------------------------------------3--5-------------------------|
  . ...       . ...       . ...

|-------------------------------------------------------------------|
|-------------------5h6p5-------------------------------------------|
|-------6h7p6-------------------6h7p6-------------------------------|
|--------------------------------------7--7-------------------------|
|-4-444-------4-444-------4-444--------5--5-------------------------|
|--------------------------------------5--5-------------------------|
  . ...       . ...       . ...

Gtr 2
|-------------------------------------------------------------------|
|-------------------------------------------------------------------|
|-------------------6h7p6-------------------------------------------|
|-------6h7p6-------------------6h7p6--5--7-------------------------|
|-4-444-------4-444-------4-444--------5--5-------------------------|
|--------------------------------------3--5-------------------------|
  . ...       . ...       . ...

|-------------------------------------------------------------------|
|-------------------------------------------------------------------|
|-------------------6h7p6-------------------------------------------|
|-------6h7p6-------------------6h7p6--7--7-------------------------|
|-4-444-------4-444-------4-444--------5--5-------------------------|
|--------------------------------------5--5-------------------------|
  . ...       . ...       . ...                            (2 times)

Riff 6b
Gtr 1
|----------------------------------------------------------4h5p4h5p4|
|----------------------5h6p5h6p5-----------------5h6p5h6p5----------|
|-------6h7p6h7p6----------------------6h7p6h7p6--------------------|
|-------------------------------------------------------------------|
|-4-444-----------4-444----------4-444------------------------------|
|-------------------------------------------------------------------|
  . ...           . ...          . ...

|-------------------------------------------------------------------|
|-----------------------5h6p5h6p5-----------------------------------|
|-------6h7p6h7p6-----------------------6h7p6h7p6-------------------|
|--------------------------------------------------7--7-------------|
|-4-444-----------4-444-----------4-444------------5--5-------------|
|--------------------------------------------------5--5-------------|
  . ...           . ...           . ...

Gtr 2
|--------------------------------------------------------------------|
|-----------------------------------------------------------5h6p5h6p5|
|-----------------------6h7p6h7p6-----------------6h7p6h7p6----------|
|-------6h7p6h7p6-----------------------6h7p6h7p6--------------------|
|-4-444-----------4-444-----------4-444------------------------------|
|--------------------------------------------------------------------|
  . ...           . ...           . ...

|-------------------------------------------------------------------|
|-------------------------------------------------------------------|
|-----------------------6h7p6h7p6-----------------------------------|
|-------6h7p6h7p6-----------------------6h7p6h7p6--7--7-------------|
|-4-444-----------4-444-----------4-444------------5--5-------------|
|--------------------------------------------------5--5-------------|
  . ...           . ...           . ...                     (2 times)

Play Riff 2 one time
Play Fill 1 one time then:

Riff 7
Gtr 1
|-------------------------------------------------------------------|
|--------------------------------------------------------5----------|
|-------------------6------------------------------6-------6--------|
|----4---5------4-----4---5---------4---5------4-----4-------5------|
|----------4----------------4-------------4-------------------------|
|-22---2-----22---2-----2-----2--22---2-----22---2-----2------------|
  ..   .     ..   .     .        ..   .     ..   .     .

Gtr 2
|-------------------------------------------------------------------|
|-------------------------------------------------------------------|
|-------------------------------------------------------------------|
|----------------------------------9/x------------------------------|
|----------------------------------7/x------------------------------|
|-22222-2222------------22222-222--7/x------------------------------|
  ..... ....            ..... ...                          (2 times)

Riff 8
|-------------------------------------------------------------------|
|-------------------------------------------------------------------|
|-------------------------------------------------------------------|
|--------------------5/x------------------9/x-----------------------|
|--------------------3/x------------------7/x-----------------------|
|-222222222-2222222--------222222222-2222-7/x-----------------------|
  ......... .......        ......... ....

Gtr 1 plays Riff 1 2 times
Gtr 2 plays Riff 8 2 times

Play Riff 6a 2 times then
Play Riff 6b 1 time

Riff 6c
Gtr 1
|-----------------------------------------------------------4h5p4h5p4-|
|-----------------------5h6p5h6p5-----------------5h6p5h6p5-----------|
|-------6h7p6h7p6-----------------------6h7p6h7p6---------------------|
|---------------------------------------------------------------------|
|-4-444-----------4-444-----------4-444-------------------------------|
|---------------------------------------------------------------------|
  . ...           . ...           . ...

|-----------------------------------------------------------4h5p4h5p4-|
|-----------------------5h6p5h6p5-----------------5h6p5h6p5-----------|
|-------6h7p6h7p6-----------------------6h7p6h7p6---------------------|
|---------------------------------------------------------------------|
|-4-444-----------4-444-----------4-444-------------------------------|
|---------------------------------------------------------------------|
  . ...           . ...           . ...

Gtr 2
|---------------------------------------------------------------------|
|-----------------------------------------------------------5h6p5h6p5-|
|-----------------------6h7p6h7p6-----------------6h7p6h7p6-----------|
|-------6h7p6h7p6-----------------------6h7p6h7p6---------------------|
|-4-444-----------4-444-----------4-444-------------------------------|
|---------------------------------------------------------------------|
  . ...           . ...           . ...

|---------------------------------------------------------------------|
|-----------------------------------------------------------5h6p5h6p5-|
|-----------------------6h7p6h7p6-----------------6h7p6h7p6-----------|
|-------6h7p6h7p6-----------------------6h7p6h7p6---------------------|
|-4-444-----------4-444-----------4-444-------------------------------|
|---------------------------------------------------------------------|
  . ...           . ...           . ...

End note
|-------------------------------------------------------------------|
|-------------------------------------------------------------------|
|--6----------------------------------------------------------------|
|--6----------------------------------------------------------------|
|--4----------------------------------------------------------------|
|-------------------------------------------------------------------|




4. Vredesbyrd

Tunning E A D G B E
Note:I only have the rythym guitar for this.
Also.  Make sure you look at those stars at the end of the tune for details.
This tune can get somewhat get complicating.
Riff#1(a).Fast..picking=up and down stroking.
|-------------------------------------|
|-------------------------------------|
|-------------------------------------|
|-------------------------------------|
|----------------4----1111111-2-3\4-3-|
|1111111111111111-------------0-1\2-1-|
 ................*     ......
Riff#1(b).Same as riff 1, except where not.Just letting the two notes ring.4 and 1.
|-------------------------------------|
|-------------------------------------|
|-------------------------------------|
|-------------------------------------|
|----------------4----1-------2-3\4-3-|
|1111111111111111-------------0-1\2-1-|
 ................                   *

Riff#2.  Heavy.
|------------------------------------------|
|------------------------------------------|
|------------------------------------------|
|------------------------------------------|
|-------2\4-------2-4----1-1-1-1-1-2-3\4-3-|
|1-1-1-1---1-1-1-1-1---------------0-1\2-1-|
 . . . .     . . . .       . . . .
Riff#3. Heavy.Slow.
|---------------------------------------|
|---------------------------------------|
|---------------------------------------|
|5----7-6-8-5--8--7-8--5----7-6-8--4--6-|
|3----5-4-6-3--6--5-6--3----5-4-6--2--4-|
|3----5-4-6-3--6--5-6--3----5-4-6--2--4-|
      . . . .     . .       . . .
Transition A. Slow.
|-------------------|
|-------------------|
|-------------------| Repeat Riff #3.
|-------------------|
|3------------2---6-|
|-------------------|
Transition B. up and down picking.
|------------------------------------|
|------------------------------------|
|------------------------------------|
|------------------------------------|
|------------------------------------|
|0-0-0-0-0-0-0-0-0-0-0-0-0-0-0-0-12/3|
 . . . . . . . . . . . . . . . .
Riff#4. Slightly Fast.
|-------------------------------------------------------|--------------------------------|
|-------------------------------------------------------|--------------------------------|
|-------------------------------------------------------|--------------------------------|
|------------9-----------------------9-109-8-----------4|----------5----------7\8-7\8-7\8|
|2-----------7-----------2-----------7-8-7-6-----------2|----------3----------5\6-5\6-5\6|
|0-0-0-0-0-0---0-0-0-0-0-0-0-0-0-0-0---------0-0-0-0-0--|0-0-0-0-0---0-0-0-0-0-----------|
   . . . . .   . . . . .   . . . . .         . . . . .

Riff#4, continued.
Fill 1.
|-------------------------------------| |---|
|-------------------------------------| |---|
|-------------------------------------| |---|
|------------5------------------------| |---|Stop.  Drum Roll. Repeat Riff#3.
|------------3-3-3-3-3-3-3------------| |-2-|
|3-3-3-3-3-3---------------1-1-1-1-1-1| |-0-|
 . . . . . .   . . . . . . . . . . . .
Riff#5.Fast where bunched notes are of course.
|---------------------------------------------------------------------------|
|---------------------------------------------------------------------------|
|---------------------------------------------------------------------------|
|----------------------------------7---7------------------------------------|
|4--444444--4--444444--4--444444-55--55--4--444444-4-444444-----6-6-----5-5-|
|-----------------------------------------------------------44444-4-33333-3-|
 .  ......  .  ......  .  ...... ..  ..  .  ...... . ...... ....    ....

Riff #6.Fast.
|--------------------------------------------------------|              |---|----------------|
|--------------------------------------------------------|              |---|----------------|
|--------------------------------------------------------|              |---|----------------|
|--------------------------------------------------------|Repeat Riff#5.|---|----------------|
|7777777777777777888888887777777777777777----------------|              |-2-|-----3-3-3-3-3-3|
|----------------------------------------7777777766666666|              |-0-|-----1-1-1-1-1-1|
 ........................................................
Repeat Riff#1 and start at the * where note "4" is.                                  . . . . . .
Repeat Riff#1b, and
the last part of the riff where the 2nd * is in Riff#1 b. Continue with this:

|--------|
|--------|
|--------|
|--------|
|3-3-3-3-|
|1-1-1-1-|
 . . . .
End Riff.



5. For The World To Dictate Our Death

Tunning E A D G B E


Intro
|-------------------------------------------------------------------|
|-------------------------------------------------------------------|
|-------------------------------------------------------------------|
|-6---6-5-6---6-7-7-6---6-5-5---------------------------------------|
|-6---6-5-6---6-7-7-6---6-5-3-----5-7-------------------------------|
|-4---4-3-4---4-5-5-4---4-3-3-----3-5-------------------------------|
                                  . .
Riff 1a
Gtr 1
|-------------------------------------------------------------------|
|-------------------------------------------------------------------|
|------------------888888-777777-------------------888888-999999----|
|---------666-999-------------------------666-999-------------------|
|-----666-----------------------------666---------------------------|
|-444-----------------------------444-------------------------------|

|-------------------------------------------------------------------|
|-------------------------------------------------------------------|
|------------------888888-777777------------------------------------|
|---------666-999-------------------5-------------------------------|
|-----666---------------------------3--5-7--------------------------|
|-444-------------------------------3--3-5--------------------------|
                                       . .

Gtr 2
|-------------------------------------------------------------------|
|-------------------------------------------------------------------|
|-------------------------------------------------------------------|
|---------666---------------------------666-------------------------|
|-----666--------666666-555555------666--------666666-777777--------|
|-444---------44----------------444---------44----------------------|

|-------------------------------------------------------------------|
|-------------------------------------------------------------------|
|-------------------------------------------------------------------|
|---------666------------------------5------------------------------|
|-----666--------666666-555555-------3--5-7-------------------------|
|-444---------44---------------------3--3-5-------------------------|
                                        . .                  (2 times)

Riff 1b
Gtr 1
|-------------------------------------------------------------------|
|-------------------------------------------------------------------|
|-----------8-7h8p7h8p7------------8-9p8h9p8------------------------|
|-----6--9-------------------6--9-----------------------------------|
|---6----------------------6----------------------------------------|
|-4----------------------4------------------------------------------|
  . . .  .               . . .  .

|-------------------------------------------------------------------|
|-------------------------------------------------------------------|
|-----------8-7h8p7h8p7---------------------------------------------|
|-----6--9---------------------5------------------------------------|
|---6--------------------------3--5-7-------------------------------|
|-4----------------------------3--3-5-------------------------------|
  . . .  .                        . .

Gtr 2
|-------------------------------------------------------------------|
|-------------------------------------------------------------------|
|-------------------------------------------------------------------|
|-----6----------------------6--------------------------------------|
|---6-----6--5h6p5h6p5-----6-----6--7p6h7p6-------------------------|
|-4-----4----------------4-----4------------------------------------|
  . . . .                . . . .

|-------------------------------------------------------------------|
|-------------------------------------------------------------------|
|-------------------------------------------------------------------|
|-----6------------------------5------------------------------------|
|---4-----6--5h6p5h6p5---------3--5-7-------------------------------|
|-4-----4----------------------3--3-5-------------------------------|
  . . . .                         . .                      (2 times)

Riff 1c
Gtr 1
|-------------------------------------------------------------------|
|-------------------------------------------------------------------|
|------------------8-8-8-8-7-7-7-7-------------------8-8-8-8-9-9-9-9|
|-----6-6-----9-9------------------------6-6-----9-9----------------|
|-------------------------------------------------------------------|
|-4-4-----4-4------------------------4-4-----4-4--------------------|
  . . . . . . . .  . . . . . . . .   . . . . . . . . . . . . . . . .

|-------------------------------------------------------------------|
|-------------------------------------------------------------------|
|------------------8-8-8-8-7-7-7-7----------------------------------|
|-----6-6-----9-9----------------------5----------------------------|
|--------------------------------------3--5-7-----------------------|
|-4-4-----4-4--------------------------3--3-5-----------------------|
  . . . . . . . .  . . . . . . . .        . .

Gtr 2
|-------------------------------------------------------------------|
|-------------------------------------------------------------------|
|-------------------------------------------------------------------|
|---------6-6-------------------------------6-6---------------------|
|-----6-6---------6-6-6-6-5-5-5-5-------6-6---------6-6-6-6-7-7-7-7-|
|-4-4---------4-4-------------------4-4---------4-4-----------------|
  . . . . . . . . . . . . . . . .   . . . . . . . . . . . . . . . .

|-------------------------------------------------------------------|
|-------------------------------------------------------------------|
|-------------------------------------------------------------------|
|---------6-6---------------------------5---------------------------|
|-----6-6---------6-6-6-6-5-5-5-5-------3--5-7----------------------|
|-4-4---------4-4-----------------------3--3-5----------------------|
  . . . . . . . . . . . . . . . .          . .             (2 times)


Riff 2
Gtr 1
|-------------------------------------------------------------------|
|-------------------------------------------------------------------|
|-------------------------------------------------------------------|
|-7-7-7--6--7-7-7--3------7-7-7--6--7-7-7----3~---------------------|
|-5-5-5--4--5-5-5----4~---5-5-5--4--5-5-5--4------------------------|
|-5-5-5--4--5-5-5---------5-5-5--4--5-5-5---------------------------|
  . . .     . . .         . . .     . . .

Gtr 2
|-------------------------------------------------------------------|
|-------------------------------------------------------------------|
|-------------------------------------------------------------------|
|-7-7-7--6--7-7-7--3--6---7-7-7--6--7-7-7--6--3---------------------|
|-5-5-5--4--5-5-5--3--4---5-5-5--4--5-5-5--4--3---------------------|
|-5-5-5--4--5-5-5--1--4---5-5-5--4--5-5-5--4--1---------------------|
  . . .     . . .         . . .     . . .                  (4 times)

Riff 3
Gtr 1
|-------------------------------------------------------------------|
|-------------------------------------------------------------------|
|-------------------------------------------------------------------|
|-5-5-5-5-5-4--5-5-5-5-5-5--1------5-5-5-5-5-4--5-5-5-5-5-5----1~---|
|-3-3-3-3-3-2--3-3-3-3-3-3----2~---3-3-3-3-3-2--3-3-3-3-3-3--2------|
|-3-3-3-3-3-2--3-3-3-3-3-3---------3-3-3-3-3-2--3-3-3-3-3-3---------|
  . .   . .    . . .   . .         . .   . .    . . .   . .

Gtr 2
|-------------------------------------------------------------------|
|-------------------------------------------------------------------|
|-------------------------------------------------------------------|
|-5-5-5-5-5-4--5-5-5-5-5-5----1~--5-5-5-5-5-4--5-5-5-5-5-5--1-------|
|-3-3-3-3-3-2--3-3-3-3-3-3--2-----3-3-3-3-3-2--3-3-3-3-3-3----2~----|
|-3-3-3-3-3-2--3-3-3-3-3-3--------3-3-3-3-3-2--3-3-3-3-3-3----------|
  . .   . .    . . .   . .        . .   . .    . . .   . . (2 times)

Riff 4
|-------------------------------------------------------------------|
|-------------------------------------------------------------------|
|-----------------------10-----------------------------10-----------|
|-2------2------2----------9-----2-------4-44-4-3-33-3----9---------|
|-2------2------2------------7---2-------2-22-2-1-11-1------7-------|
|-0-00-0-0-00-0-0-00-0-----------0-00-0--0-00-0-0-00-0--------------|
    .. .   .. .   .. .             .. .    .. .   .. .

|-------------------------------------------------------------------|
|-------------------------------------------------------------------|
|-----------------------10-------------------------10---------------|
|-2------2------2----------9-----2-------4-44-4-3-----9-------------|
|-2------2------2------------7---2-------2-22-2-1-------7-----------|
|-0-00-0-0-00-0-0-00-0-----------0-00-0--0-00-0-0-------------------|
    .. .   .. .   .. .             .. .    .. .          (2 times)

Play Riff 2 1 time
Play Riff 3 1 time
Play Riff 2 1 time
Play Riff 3 1 time

Riff 5
|-------------------------------------------------------------------|
|-------------------------------------------------------------------|
|-------------------------------------------------------------------|
|-5--5-5-5--6-5--5--5-5-5-------4-------5---------------------------|
|-3--3-3-3--6-5--3--3-3-3-------4-------5---------------------------|
|-3--3-3-3--4-3--3--3-3-3--2-22-2--3-33-3---------------------------|
     . .            . .    . ..    . ..                    (2 times)

Riff 6a
Gtr 1
|-------------------------------------------------------------------|
|-------------------------------------------------------------------|
|------------7-10-9-6-----------------------------------------------|
|-7--------7------------6-------------6------6---6--5-4--3----------|
|-5------5--------------4-------------4------4---6--5-4--3----------|
|-5---------------------4--------4-44-4-4-44-4---4--3-2--1----------|
                                 . ..   . ..

Gtr 2
|-------------------------------------------------------------------|
|-------------------------------------------------------------------|
|-------------------------------------------------------------------|
|-7------------3-2------6-------------6------6---6--5-4--3----------|
|-5------5---5-----4----4-------------4------4---6--5-4--3----------|
|-5--------5------------4--------4-44-4-4-44-4---4--3-2--1----------|
                                 . ..   . ..              (2 times)

Play Riff 5 2 times then

Riff 6b
Gtr 1
|-------------------------------------------------------------------|
|-------------------------------------------------------------------|
|--------------------------7-10-9-6---------------------------------|
|-7------7------7--------7------------------------------------------|
|-5------5------5------5--------------------------------------------|
|-5-5555-5-5555-5-5555----------------------------------------------|
    ....   ....   ....

|-------------------------------------------------------------------|
|-------------------------------------------------------------------|
|-------------------------------------------------------------------|
|-6------6------6------6------6----6---6--5-4--3--------------------|
|-4------4------4------4------4----4---6--5-4--3--------------------|
|-4-4444-4-4444-4-4444-4-4444-4-44-4---4--3-2--1--------------------|
    ....   ....   ....   ....   ..

Gtr 2
|-------------------------------------------------------------------|
|-------------------------------------------------------------------|
|-------------------------------------------------------------------|
|-7------7------7------------3-2------------------------------------|
|-5------5------5------5---5-----4----------------------------------|
|-5-5555-5-5555-5-5555---5------------------------------------------|

|-------------------------------------------------------------------|
|-------------------------------------------------------------------|
|-------------------------------------------------------------------|
|-6------6------6------6------6----6---6--5-4--3--------------------|
|-4------4------4------4------4----4---6--5-4--3--------------------|
|-4-4444-4-4444-4-4444-4-4444-4-44-4---4--3-2--1--------------------|

Play Intro 1 time
Play Riff 1a 4 times then

Riff 7
Gtr 1
|--------------------------------------------------------------------|
|--------------------------------------------------------------------|
|-----------------8-8-8-8-7h8p7h8p7-------------------8-8-8-8-9p8h9p8|
|-----6-6-----9-9-------------------------6-6-----9-9----------------|
|--------------------------------------------------------------------|
|-4-4-----4-4-------------------------4-4-----4-4--------------------|
  . . . . . . . . . . . .             . . . . . . . . . . . .

|-------------------------------------------------------------------|
|-------------------------------------------------------------------|
|-----------------8-8-8-8-7h8p7h8p7---------------------------------|
|-----6-6-----9-9--------------------*5-----------------------------|
|-------------------------------------3--5-7------------------------|
|-4-4-----4-4-------------------------3--3-5------------------------|
  . . . . . . . . . . . .                . .

Gtr 2
|-------------------------------------------------------------------|
|-------------------------------------------------------------------|
|-------------------------------------------------------------------|
|---------6-6--------------------------------6-6--------------------|
|-----6-6---------6-6-6-6-5h6p5h6p5------6-6---------6-6-6-6-7p6h7p6|
|-4-4---------4-4--------------------4-4---------4-4----------------|
  . . . . . . . . . . . .            . . . . . . . . . . . .

|-------------------------------------------------------------------|
|-------------------------------------------------------------------|
|-------------------------------------------------------------------|
|---------6-6----------------------------------*5-------------------|
|-----6-6---------6-6-6-6-5h6p5h6p5-------------3--5-7--------------|
|-4-4---------4-4-------------------------------3--3-5--------------|
  . . . . . . . . . . . .          (2 times)       . .
                                               * Ending first time

Ending the second time
|-------------------------------------------------------------------|
|-------------------------------------------------------------------|
|-------------------------------------------------------------------|
|-5-----------------------------------------------------------------|
|-3--5-7-5-6--------------------------------------------------------|
|-3--3-5-3-4--------------------------------------------------------|




6. Blood Hunger Doctrine

Tunning D G C F A D


Intro x 4
Right after it starts fading
|-----------------------------------|
|-----------------------------------|
|--9--9--9--9--9---9---12----12-11--|
|---9--9--9--9--12--12-12----12-12--|
|---7--7--7--7----------------------|
|-----------------------------------|

|-----------------------------------|
|-----------------------------------|
|--9--9--9--9--9---9---12----12-14--|
|---9--9--9--9--12--12-12----12-12--|
|---7--7--7--7----------------------|
|-----------------------------------|

-------------------------------------

|---------------------------------|
|---------------------------------|
|---------------------------------|
|-2---/7--5-4-4-2-2---/7---5---7--|
|-2---/7--5-4-4-2-2---/7---5---7--|
|-0---/5--3-2-2-0-0---/5---3---5--|

|---------------------------------------------------|
|---------------------------------------------------|
|---------------------------------------------------|
|-2---/7--5-4-4-2-2---------------------------------|
|-2---/7--5-4-4-2-2---222--222-222-2--5-4-4-2-2-----|
|-0---/5--3-2-2-0-0---000--000-000-0--3-2-2-0-0-----|
                      ...  ... ..  .  . . . . .

Chorus x4 (follow the bass drum when palm muting)
|-----------------------------------------|
|-----------------------------------------|
|-----------------------------------------|
|----------------------7---5-4-2-0-2------|
|-2-2-2-2-22-2-2-2-22--7---5-4-2-0-2------|
|-0-0-0-0-00-0-0-0-00--5---3-2-0-0-0------|
  . . . . .. . . . ..

|-----------------------------------------|
|-----------------------------------------|
|-----------------------------------------|
|----------------------7---5---7----------|
|-2-2-2-2-22-2-2-2-22--7---5---7----------|
|-0-0-0-0-00-0-0-0-00--5---3---5----------|
  . . . . .. . . . ..


Middle section (before the actual riff, just damp D like this)
|----------|
|----------|
|----------|
|----------|
|-2-2--2-2-|
|-0-0--0-0-|
  . .  . .

Middle riff
|-------------------------------------|
|-------------------------------6-----|
|---------------------6(6)-5(5)--5----| Gtr I
|-------------5-2---------------------|
|-2-2-2-2-2-2-5-2-1-------------------|
|-0-0-0-0-0-0-3-----0-----------------|
|   . . . . .       .   .    .
|
|-------------------------------------|
|-------------------------------6-----|
|---------------------6(6)-5(5)--5----| Gtr II
|-------------/9-9(8)-----------------|
|-2-2-2-2-2---/9-9(8)-----------------|
|-0-0-0-0-0-0-/7-7(6)-----------------|
    . . . .             .    .

|-------------------------------------|
|-------------------------------------|
|-----------------5-------------------| Gtr I
|-------------5-2-5-------5-4-2-------|
|-2-2-2-2-2-2-5-2---3-3-3--3-3--------|
|-0-0-0-0-0-0-3-----------------------|
|   . . . . .       . . .  . .
|
|-------------------------------------|
|-------------------------------------|
|-----------------5-------------------| Gtr II
|------------/9-9-5-------5-4-2-------|
|-2-2-2-2-2-2/9-9-3-3-3-3--3-3--------|
|-0-0-0-0-0-0/7-7---------------------|
|   . . . .         . . .  . .


At 3:12
|----------------|
|----------------|
|----------------|
|----------------|
|-5-5-5-4-4-4-2--|
|-3-3-3-2-2-2-0--|
  . . . . . . .



7. Allehelgens Dod I Helveds Rike

Tunning E A D G B E

Riff 1a
|-------------------------------------------------------------------|
|-------------------------------------------------------------------|
|-------------------------------------------------------------------|
|---------------------------------555-4-----2-----------------------|
|-------22222-------33333---------------111-------------------------|
|-00000-------00000-------00000-------------------------------------|


|-------------------------------------------------------------------|
|-------------------------------------------------5-----5-----------|
|-----------------------------------------------3-----3-------------|
|---------------------------------555-4-----2-2-----2---------------|
|-------22222-------33333---------------111-------------------------|
|-00000-------00000-------00000-------------------------------------|
                                                           (2 times)
Gtr 1 continues to play riff 1a while gtr 2 plays:

Riff 1b
|-------------------------------------------------------------------|
|-------------------------------------------------------------------|
|-------------------------------------------------------------------|
|-----------------------555-4-----2---------------------------------|
|-2--------2--------2---------111-----------------------------------|
|-0--0000000--0000000-----------------------------------------------|
  .  .......  .......

|-------------------------------------------------------------------|
|-------------------------------------------------------------------|
|-------------------------------------------------------------------|
|-----------------------555-4-----2---------------------------------|
|-2--------2--------2---------111-----------------------------------|
|-0--0000000--0000000-----------------------------------------------|
  .  .......  .......                                      (2 times)

|-------------------------------------------------------------------|
|------5-----5-----------------------5-----5-----5-----5------------|
|----3-----3-----------------------3-----3-----3-----3--------------|
|-*2-----2---------------------**2-----2-----2-----2----------------|
|-------------------------------------------------------------------|
|-------------------------------------------------------------------|
  * ending the first time      ** ending the second time

Riff 2a
|-------------------------------------------------------------------|
|-------------------------------------------------------------------|
|-11--11--10---------"11--"8----------------------------------------|
|--9---9---8---"12---"11--"8---"11----------------------------------|
|--9---9---8---"10---"-9--"6---"-9----------------------------------|
|-------------------------------------------------------------------|
                                                           (6 times)

Transition 1
|-------------------------------------------------------------------|
|-------------------------------------------------------------------|
|-11--11--10--------------------------------------------------------|
|--9---9---8--------------------------------------------------------|
|--9---9---8--------------------------------------------------------|
|-------------------------------------------------------------------|

Riff 2b
|-------------------------------------------------------------------|
|-------------------------------------------------------------------|
|------11--11-------------------------------------------------------|
|-"12---9---9---"12--------------8----------------------------------|
|-"10---9---9---"10---66666-9999------------------------------------|
|-------------------------------------------------------------------|

|-------------------------------------------------------------------|
|-------------------------------------------------------------------|
|------11-11--------------------------------------------------------|
|-"12---9--9---"12--------------------------------------------------|
|-"10---9--9---"10---66666-9999-6-----------------------------------|
|-------------------------------------------------------------------|
                                                           (2 times)

Riff 3a
|-------------------------------------------------------------------|
|-------------------------------------------------------------------|
|-------------------------------------------------------------------|
|----8------------8-------------4------------4----------------------|
|----6------------6-------------4------------4----------------------|
|-66-6-66-66-66-6-6-66-66-6--22-2-22-22-22-2-2-22-22-2--------------|
  ..   .. .. .. .   .. .. .  ..   .. .. .. .   .. .. .

|-------------------------------------------------------------------|
|-------------------------------------------------------------------|
|-------------------------------------------------------------------|
|----6------------6-------------9------------9----------------------|
|----4------------4-------------9------------9----------------------|
|-44-4-44-44-44-4-4-44-44-4--77-7-77-77-77-7-7-77-77-7--------------|
  ..   .. .. .. .   .. .. .  ..   .. .. .. .   .. .. .     (2 times)

Riff 3b
|-------------------------------------------------------------------|
|-------------------------------------------------------------------|
|-------------------------------------------------------------------|
|-8-----8-----8-----8------4------4------4------4-------------------|
|-6-----6-----6-----6------4------4------4------4-------------------|
|-6-666-6-66--6-666-6-666--2-2222-2-2222-2-2222-2-2222--------------|
    ...   ..    ...   ...    ....   ....   ....   ....

|-------------------------------------------------------------------|
|-------------------------------------------------------------------|
|-------------------------------------------------------------------|
|-6-----6-----6-----6------9------9------9------9-------------------|
|-4-----4-----4-----4------9------9------9------9-------------------|
|-4-444-4-44--4-444-4-444--7-7777-7-7777-7-7777-7-7777--------------|
    ...   ..    ...   ...    ....   ....   ....   ....     (2 times)

Riff 4a
|-------------------------------------------------------------------|
|----------------------5---4---5---4--------------------------------|
|----------------------6---6---6---6--------------------------------|
|-4---4---4---4--------6---6---6---6--------------------------------|
|-4---4---4---4--------4---4---4---4--------------------------------|
|-2---2---2---2--------4---4---4---4--------------------------------|
                                                           (4 times)
Riff 4b
|-------------------------------------------------------------------|
|-------------------------------------------------------------------|
|----------------------6--------------------------------------------|
|-4--------------------6--------------------------------------------|
|-4--------------------4--------------------------------------------|
|-2-2222222222222222---4-4444444444444444---------------------------|
    ................     ................                 (2 times)


Gtr 1 plays the higher notes
Gtr 2 plays the lower notes
|--------------9--9--7--5---9--9------------------------------------|
|-----10--12--10-10--9--7--10-10--9--10--12-------------------------|
|--9--11--13----------------------9--11--13---9---------------------|
|-11-----------------------------------------11---------------------|
|-------------------------------------------------------------------|
|-------------------------------------------------------------------|


|--------------9--9--7--5---9--9------------------------------------|
|-----10--12--10-10--9--7--10-10--9--10--12-------------------------|
|--9--11--13----------------------9--11--13---9/x-------------------|
|-11-----------------------------------------11/x-------------------|
|-------------------------------------------------------------------|
|-------------------------------------------------------------------|

Play Riff 2a 4 times then

Transition 2
|-------------------------------------------------------------------|
|-----5-----5-----5-----5-------------------------------------------|
|---3-----3-----3-----3---------------------------------------------|
|-2-----2-----2-----2-----------------------------------------------|
|-------------------------------------------------------------------|
|-------------------------------------------------------------------|

Riff 5
|--------------------------------------------------------------------|
|--------------------------------------------------------------------|
|--------------------------------------------------------------------|
|----------------------------999-------------------------------------|
|-2-77-66-77-88888-------666-----------77-66-77-88888------------3333|
|-0------------------000-----------000-----------------4444-1111-----|

|-----------------------------------------------------------------------------|
|-----------------------------------------------------------------------------|
|-----------------------------------------------------------------------------|
|----------------------------999----------------------------------------------|
|-2-77-66-77-88888-------666-----------77-66-77-88888------------6h7p6h7p6h7p6|
|-0------------------000-----------000-----------------4444-1111--------------|

|---------------------------------------------------------------------|
|---------------------------------------------------------------------|
|---------------------------------------------------------------------|
|----------------------------999--------------------------------------|
|-2-77-66-77-88888-------666-----------77-66-77-88888------------3333-|
|-0------------------000-----------000-----------------4444-1111------|

|-------------------------------------------------------------------|
|-------------------------------------------------------------------|
|-------------------------------------------------------------------|
|----------------------------999------------------------------------|
|-2-77-66-77-88888-------666-----------77-66-77-88888------------6--|
|-0------------------000-----------000-----------------4444-1111----|

Play Riff 1a 2 times then

Riff 6
Gtr 1
|-------------------------------------------------------------------|
|-------------------------------------------------------------------|
|----------------------444-3-----3----------------------444-3-----3-|
|----------------------------222------------------------------222---|
|-2--------2--------2---------------2--------2--------2-------------|
|-0--0000000--0000000---------------0--0000000--0000000-------------|
  .  .......  .......               .  .......  .......

Gtr 2
|-------------------------------------------------------------------|
|-------------------------------------------------------------------|
|-------------------------------------------------------------------|
|----------------------555-4-----2-----------------------555-4-----2|
|-2--------2--------2--------111----2--------2--------2--------111--|
|-0--0000000--0000000---------------0--0000000--0000000-------------|
  .  .......  .......               .  .......  .......    (2 times)

Both Gtrs
|-------------------------------------------------------------------|
|------5-----5------------------5-----5-----5-----5------------------|
|----3-----3------------------3-----3-----3-----3-------------------|
|-*2-----2----------------**2-----2-----2-----2---------------------|
|-------------------------------------------------------------------|
|-------------------------------------------------------------------|
  * Ending first time     **Ending second time

Riff 7
Gtr 1
|-------------------------------------------------------------------|
|-------3-2-3-------3-2-3----------6-5-6-------6-5-6----------------|
|-----4-----------4--------------7-----------7----------------------|
|---4-----------4--------------7-----------7------------------------|
|-2-----------2--------------5-----------5--------------------------|
|-------------------------------------------------------------------|

|-------------------------------------------------------------------|
|-------------------------------------------------------------------|
|-------5-4-5-------5-4-5----------3-2-3-------3-2-3----------------|
|-----7-----------7--------------5-----------5----------------------|
|---7-----------7--------------5-----------5------------------------|
|-5-----------5--------------3-----------3--------------------------|
                                                           (3 times)

Gtr 2
|-------------------------------------------------------------------|
|-------------------------------------------------------------------|
|-4----------7------------------------------------------------------|
|-4----------7---------------7-----------5--------------------------|
|-2----------5---------------7-----------5--------------------------|
|----------------------------5-----------3--------------------------|

|-------------------------------------------------------------------|
|-------------------------------------------------------------------|
|-------------------------------------------------------------------|
|-"4---------"7-----------------------------------------------------|
|-"2---------"5--------------"7----------"5-------------------------|
|----------------------------"5----------"3-------------------------|
   .          .               .           .
|-------------------------------------------------------------------|
|-------------------------------------------------------------------|
|-4----------7------------------------------------------------------|
|-4----------7---------------7------------5-------------------------|
|-2----------5---------------7------------5-------------------------|
|----------------------------5------------3-------------------------|


Both Gtrs
|-------------------------------------------------------------------|
|-------------------------------------------------------------------|
|-------------------------------------------------------------------|
|-"4---------"7-----------------------------------------------------|
|-"2---------"5-------------"7------------"5------------------------|
|---------------------------"5------------"3------------------------|

|-------------------------------------------------------------------|
|-------------------------------------------------------------------|
|-4-3--4-3--4-3--4-3--4-3--4-3---4-----------------------------------|
|-2----2----2----2----2----2-----2-----------------------------------|
|-------------------------------------------------------------------|
|-------------------------------------------------------------------|



8. Cataclysm Children

Tunning : E A D G B E

NOTE: ALL GUITARS DISTORTED UNLESS NOTED.

OPENING: TRANSITION A.
|-------||
|-------||
|-------||
|-------||
|6-5-5-5||
|4-3-6-3||
 . . . .

Riff#1A.GUITAR 1.SLIGHTY FAST/UP/DOWN STROKE PICKING.
|----------------------------------------------------------
|----------------------------------------------------------
|------------4--4-4---------------------------------4--4-4-
|------------2--2-2---------------------------------2--2-2-
|-------------------------------6\5-5-8--------------------
|0-0-0-0-0-0--------0-0-0-0-0-0-4\3-3-6-0-0-0-0-0-0--------
 . . . . . .        . . . . . .         . . . . . .

RIFF#1A.GUITAR 1. CONTINUED..
                     FILL.
|------------|-----|-------||
|------------|-----|-------||
|------------|8\6-3|-------||
|------------|6\4-1|-------||
|------------|-----|6-5-8-5||
|0-0-0-0-0-0-|-----|4-3-6-3||
 . . . . . .        . . . .

RIFF#1B.GUITAR 2./PLAYS THIS ONCE. MODERATELY FAST.
(COMES IN AFTER GUITAR 1 PLAYS RIFF#1/WITHOUT THE FILL..)
|---------------------------------------------------------------||
|---------------------------------------------------------------||
|---------------------------------------------------------------||
|---------------------------------------------------------------||
|-G---G---G---G---G---G---G---G---G---G---G---G---G---G--6-5-8-5||
|000-000-000-000-000-000-000-000-000-000-000-000-000-000-4-3-6-3||
 ... ... ... ... ... ... ... ... ... ... ... ... ... ... . . . .

REPEAT RIFF#1A.BOTH GUITARS.

TRANSITION B. GUITAR 1.MODERATELY FAST.
|-------------------------------------------------------------||
|-------------------------------------------------------------||
|-3-3-3-3-3-3-2-2-3-2-3-2-------3-3-3-3-3-3-2-2-3-2-3-2-------||
|-3-3-3-3-3-3-2-2-3-2-3-2-------3-3-3-3-3-3-2-2-3-2-3-2-6-5-7-||
|-1-1-1-1-1-1-1-1-1-1-1-1-5-5-5-1-1-1-1-1-1-1-1-1-1-1-1-4-3-5-||
|-------------------------3-3-3-------------------------4-3-5-||

TRANSITION B. GUITAR 2.
|-------------------------------------------------------------||
|-------------------------------------------------------------||
|-------------------------------------------------------------||
|-------------------------------------------------------6-5-7-||
|5------------------------5-5-5-------------------------4-3-5-||
|3------------------------3-3-3-------------------------4-3-5-||

RIFF#2. BOTH GUITARS. MODERATELY FAST/DOWN PICKING..
|-------------------------------------------------------------------
|-------------------------------------------------------------------
|------------------------------4-4-4-5------------------------------
|------------------------------2-2-2-3------------------------------
|2-2-2-2-2-2-2-3-2-2-2-2-2-2-2---------2-2-2-2-2-2-2-3-2-2-2-2-2-2-2
|0-0-0-0-0-0-0-1-0-0-0-0-0-0-0---------0-0-0-0-0-0-0-1-0-0-0-0-0-0-0
 . . . . . .       . . . . . .         . . . . . .       . . . . . .

RIFF#2. CONTINUED..
|---------------------------------------------------------------
|---------------------------------------------------------------
|5-5-5-4-------------------------------4-4-4-5------------------
|3-3-3-2-------------------------------2-2-2-3------------------
|--------2-2-2-2-2-2-2-3-2-2-2-2-2-2-2---------2-2-2-2-2-2-2-3-2
|--------0-0-0-0-0-0-0-1-0-0-0-0-0-0-0---------0-0-0-0-0-0-0-1-0
         . . . . . .       . . . . . .         . . . . . .

RIFF#2. CONTINUED...
|----------------||
|----------------||
|------4-----4---||
|------4-3-2-4-2-||
|3-3-3---3-2---2-||
|1-1-1-----------||
 . . .

REPEAT RIFF#1A. BOTH GUITARS.

RIFF#3A. GUITAR 1. MODERATELY FAST.
|----------------------------------------------------------------||
|----------------------------------------------------------------||
|----------------------------------------------------------------||
|--------------4-3-----------3/4---------------------------------||
|2-2-2-2-5\4-2-2-1-1-1-1-1-0-1/2---------5\4-2-5-4-------5\4-5\4-||
|0-0-0-0-3\2-0-------------------0-0-0-0-3\2-0-3-2-2-2-2-3\2-3\2-||
 . . . .           . . . .       . . . .           . . .

RIFF#3B. GUITAR 2./CLEAN..
|-----------------------------------------------------------0----||
|----------0-----------0---0------------0-------------0---0---0--||
|----4---4---4-----4-----0--------4---4---4-----4---4---4--------||
|--2---2---------2---2----------2---2---------2---2--------------||
|2-------------2--------------2-------------2--------------------||
|----------------------------------------------------------------||

TRANSITION C.
|-----------------------------------------------------------
|-----------------------------------------------------------
|-----------------------3-----------------------------------
|-----------------------------------------------------------
|2-2222-2-2222-2-2222-3---2-2-2222-2-2222-2-2222-5-4-3-2--2-
|0-0000-0-0000-0-0000-2-----0-0000-0-0000-0-0000-3-2-1-0--0-
 . .... . .... . ....       . .... . .... . ....   . . .  .

TRANSITION C, CONTINUED.
|-------------------------------------------------||
|-------------------------------------------------||
|----------------3---------------------3-------4--||
|------------------------------------3---3---4---4||
|2-2222-2-2222-3---2-2-2222-2-2222-2-------3------||
|0-0000-0-0000-2-----0-0000-0-0000----------------||
 . .... . ....       . .... . ....

RIFF#4.FAST. BOTH GUITARS.
|------------------------------------------------------------------
|------------------------------------------------------------------
|---------4----------------3----------4----------------------------
|---------2---------------------------2----------------------------
|2-----------------------3---2-----------------------5-4-3-2-------
|0-000000---000000000000-2-----000000---000000000000-3-2-1-0-000000
   ......   ............       ......   ............   . . . ......

RIFF#4. CONTINUED..
|-----------------------------------|---------------
|-----------------------------------|---------------
|4---------------3----------4-------|----3-------3--
|2-----------------2--------2-------|--3---3---4---3
|--------------3--------------------|2-------3------
|--00000000000-2-----000000---000000|---------------
   ...........       ......   ......

RIFF#4.CONTINUED!.
            (FILL)
|-----------------------------||
|------------------4-------5--||
|----3-------4---3---3---4---4||
|--3---3---4---2-------3------||
|2-------3--------------------||
|-----------------------------||

RIFF#5.(HALF NOTE CHORDS)SLOW/MODERATELY...
|0--0----------------------0--0--------------------0--0------------
|0--0----------------------0--0--------------------0--0------------
|4--4----------------------4--4--------------------4--4------------
|4--4--5--5--2--2----------4--4--5--5--2--2--------4--4--5--5--2--2
|2--2--5--5--2--2----------2--2--5--5--2--2--------2--2--5--5--2--2
|------3--3--0--0----------------3--3--0--0--------------3--3--0--0
                S                         S                       S

RIFF#5. CONTINUED..
|0--0-----------------------||
|0--0-----------------------||
|4--4-----------------------||
|4--4--5--5--2--2--2--------||
|2--2--5--5--2--2--2--------||
|------3--3--0--0--0--------||
             .  .  S

REPEAT RIFF#3B.GUITAR 1. AFTER ONE TIME, GUITAR 2 COMES IN:

RIFF#7.GUITAR 2./WHILE GUITAR 1 IS PLAYING #3B./SLOW.
|-------------------------------||
|-------------------------------||
|-------------------------------||
|-----3-------------------------||
|2----1--1-1--1-1-1----1~-1-1-1-||
|0----1-------------------------||
 S       . .  . . .       . . .

REPEAT RIFF#2.

TRANSITION D.
|----------------||
|----------------||
|----3-------4---||
|--3---3---4---4-||
|2-------3-------||
|----------------||

REPEAT RIFF#5/WITHOUT PALM MUTING AT END..
SOLO 2 COMES IN

TRANSITION E.
|--------------------------------||
|--------------------4-------5---||
|----3-------4-----3---3---4---4-||
|--3---3---4---4-2-------3-------||
|2-------3-----------------------||
|--------------------------------||


END RIFF.
NOTE:SLIDE DOESN'T HAVE TO BE ACCURATE,
|------------||
|------------||
|------------||
|------9-\-4-||
|2--2--7---2-||
|0--0--7-\-2-||
 .  .



9. Eradication Instincts Defined

Riff 1
-------------------
-------------------
-------------------
----4--------------
----4--5-5---------
2-2-2--3-3---------
. .    . .

Riff 2
-----------------------------------------------------------------------
-----------------------------------------------------------------------
-----------------------------------------------------------------------
4-4-4-4-4-4-4-4---5-5-5--3-3-3---4-4-4-4-4-4-4-4---5-5-5--6-6-6--------
4-4-4-4-4-4-4-4---5-5-5--3-3-3---4-4-4-4-4-4-4-4---5-5-5--6-6-6--------
2-2-2-2-2-2-2-2---3-3-3--1-1-1---2-2-2-2-2-2-2-2---3-3-3--4-4-4--------

Fill 1
-------------
-------------
-------------
4---3---4----
4---3---4----
2---1---2----

Riff 3
------------------------------------------
------------------------------------------
------------------------------------------
--------4----4-----------4-------5--------
--------4----4-----------4-------5--------
2-2-2-2-2----2-----2-2-2-2-3-3-3-3--------
. . . .            . . .   . . .

Riff 4
-------------------------
-------------------------
-------------------------
4-------4-------4--5-----
4-------4-------4--5-----
2-------2-------2--3-----

Riff 5
-----------------------
-----------------------
-----------------------
4-------------4--------
4-------------4--------
2------2-2----2--------
       . .

Riff 6
----------------------------------
----------------------------------
----------------------------------
-------------------5--------------
4--4-4--4-4--4-4---5--------------
2--2-2--2-2--2-2---3--------------
.  . .  . .  . .

Riff 7(Ending Riff)
-------------------------------------
-------------------------------------
-------------------------------------
4--5--4--5--5------------------------
4--5--4--5--5------------------------
2--3--2--3--3------------------------




10. Unorthodox Manifesto

Tunning E A D G B E

Riff 1a
|-------------------------------------------------------------------|
|-------------------------------------------------------------------|
|-------------------------3\4--3\4----------------------------------|
|----------------------2--2----2------------------------------------|
|-22-2-2-2-2-2-22-2-2--1--------------------------------------------|
|-00-0-0-0-0-0-00-0-0-----------------------------------------------|
  .. . . . . . .. . .                                     (8 times)

Riff 1b
|-------------------------------------------------------------------|
|-------------------------------------------------------------------|
|----------------------------------------3\4--3\4-------------------|
|-------------------------------------2--2----2---------------------|
|-------------------------------------1-----------------------------|
|-000-0-0-0-0-0-0-0-0-0-0-000-0-0-0-0-------------------------------|
  ... . . . . . . . . . . ... . . . .                     (3 times)

Fill 1
|-------------------------------------------------------------------|
|-------------------------------------------------------------------|
|-------------------------------------------------------------------|
|-------------------------------------------------------------------|
|-------------------------------------------------------------------|
|-000-0-0-0-0-0-0-0-0-0-0-000000000---------------------------------|
  ... . . . . . . . . . . .........

Riff 2a
|-------------------------------------------------------------------|
|-------------------------------------------------------------------|
|-----------------------------------------3\4-----------------------|
|-3\5-5-5--5\6-6-6--5\6-6--5\6-6--2----2--2-------------------------|
|-3\5-5-5--5\6-6-6--5\6-6--5\6-6--2--2------------------------------|
|-1\3-3-3--3\4-4-4--3\4-4--3\4-4--0---------------------------------|
                                     . .

|-------------------------------------------------------------------|
|-------------------------------------------------------------------|
|-----------------------3\4-----------------------------------------|
|-5\6-6--5\6-6--2----2--2-------------------------------------------|
|-5\6-6--5\6-6--2--2------------------------------------------------|
|-3\4-4--3\4-4--0---------------------------------------------------|
                   . .                                   (5 times)

Fill 2
|-------------------------------------------------------------------|
|-------------------------------------------------------------------|
|-----------------------------------------3\4-----------------------|
|-3\5-5-5--5\6-6-6--5\6-6--5\6-6--2----2--2----5\6-6--5\6-6---------|
|-3\5-5-5--5\6-6-6--5\6-6--5\6-6--2--2---------5\6-6--5\6-6---------|
|-1\3-3-3--3\4-4-4--3\4-4--3\4-4--0------------3\4-4--3\4-4---------|
                                     . .

Play Riff 1a 4 times then

Riff 1c
|-------------------------------------------------------------------|
|-------------------------------------------------------------------|
|---------------------------------------3\4--3\4--------------------|
|-------------------------------------2-2----2----------------------|
|-------------------------------------1-----------------------------|
|-000-0-0-0-0-0-0-0-0-0-0-000-0-0-000-------------------------------|
  ... . . . . . . . . . . ... . . ...                     (3 times)

Play Fill 1 then

Riff 2b
|------------------------------------0--------------------0---------|
|------------------------------------0--------------------0---------|
|-1\3-3-3--3\4-4-4--3\4-4--3\4-4-----0---3\4-4--3\4-4-----0---------|
|-3\5-5-5--5\6-6-6--5\6-6--5\6-6--2--2---5\6-6--5\6-6--2--2---------|
|-3\5-5-5--5\6-6-6--5\6-6--5\6-6--2--2---5\6-6--5\6-6--2--2---------|
|-1\3-3-3--3\4-4-4--3\4-4--3\4-4--0--0---3\4-4--3\4-4--0--0---------|
                                                           (2 times)

Play Riff 2a 2 times then

Transition 1
|-------------------------------------------------------------------|
|-------------------------------------------------------------------|
|-------------------------------------------------------------------|
|-7-5-6--7-6-3-7----------------------------------------------------|
|-5-5-6--7-6-3-5----------------------------------------------------|
|-5-3-4--5-4-1-5----------------------------------------------------|
  . .    . . .                                             (2 times)

Riff 3a
|-------------------------------------------------------------------|
|-------------------------------------------------------------------|
|-------------------------------------------------------------------|
|-7-5-"6---------7-6-3-"7-------------------------------------------|
|-5-5-"6---------7-6-3-"5-------------------------------------------|
|-5-3-"4---------5-4-1-"5-------------------------------------------|
  . .            . . .                                     (2 times)

Riff 3b
|-------------------------------------------------------------------|
|-------------------------------------------------------------------|
|-----7-------------------------------------------------------------|
|---7--------5--"6-----7-6-3-"7-------------------------------------|
|-5--------5----"6-----7-6-3-"5-------------------------------------|
|--------3------"4-----5-4-1-"5-------------------------------------|
  . .    . .                                               (4 times)

Solo 1
Gtr 1                           ah
|-------------------------------------------------------------------|
|-------------------------------------------------------------------|
|-------------------------------------------------------------------|
|-------------------------------6-----------------------------------|
|-7-8-7-8-7-8--5--8-7-8-7-5-7-8-------------------------------------|
|-------------------------------------------------------------------|
  . . . . . .       . . . . . .

|-------------------------------------------------------------------|
|-------------------------------------------------------------------|
|----------------------------------------9-6--7-9-7-----------------|
|---------------------------------7-8-10----------------------------|
|-5-4-5-7-8-5--7-5-7-8-10-7--8-10-----------------------------------|
|-------------------------------------------------------------------|


|-------------------------------------------------------------------|
|-------------------------------------------------------------------|
|-10-9-7-9-10-13-14------13h14h15p14--------------------------------|
|-------------------------------------15-12-14-15-------------------|
|-------------------------------------------------------------------|
|-------------------------------------------------------------------|

|-------------------------------------------------------------------|
|-------------------------------------------------------------------|
|-12h13h14-15p14p13-12h13h14--12h13h14-15p14p13-12h13h14------------|
|-------------------------------------------------------------------|
|-------------------------------------------------------------------|
|-------------------------------------------------------------------|

Gtr 1
|-------------------------------------------------------------------|
|-------------------------------------------------------------------|
|-14-12-10-12-14-12-10--9------14-12-10-12-14--10/x-----------------|
|---------------------------------------------------11/x------------|
|-------------------------------------------------------------------|
|-------------------------------------------------------------------|

Gtr 2
Fill 3
|-------------------------------------------------------------------|
|-------------------------------------------------------------------|
|-------------------------------------------------------------------|
|-----------------------2-3-----------------------------------------|
|--8--7--5--7--8--7--5--0-1-----8--7--5--7--8---8/x--4/x------------|
|-------------------------------------------------------------------|

|-------------------------------------------------------------------|
|--------------10-11-10-----------------------10-11-10--------------|
|---------7-10----------10----------------6-9----------10-----------|
|-------7------------------12-11--------6-----------------12-11-----|
|-5-7-8---------------------------4-5-7-----------------------------|
|-------------------------------------------------------------------|
  . . . . .                       . . . . .

|-------------------------------------------------------------------|
|--------------10-11-10---------------------------------------------|
|---------7-10----------10----------------6-------------------------|
|-------7------------------12-11--------6---------------------------|
|-5-7-8---------------------------4-5-7-----------------------------|
|-------------------------------------------------------------------|
  . . . . .                       . . . . .

|------------------------------12h13h15h17/-------------------------|
|--------------------12h14h15---------------------------------------|
|----------9h11h12--------------------------------------------------|
|-9h11h12-----------------------------------------------------------|
|-------------------------------------------------------------------|
|-------------------------------------------------------------------|

Solo Riff 1
|-------------------------------------------------------------------|
|-------------------------------------------------------------------|
|-------------------------------------------------------------------|
|-7--------6--------2--3--------------------------------------------|
|-5--------4--------0--1--------------------------------------------|
|-------------------------------------------------------------------|

Gtr 2 during Solo 1:
Play Solo riff 1 4 times
Play Fill 3 1 time
Play Solo Riff 2 times then

Riff 4
|-------------------------------------------------------------------|
|-------------------------------------------------------------------|
|-------------------------------------------------------------------|
|-4--4-4-4-4-4-4-4-4-4-4-4-4--3-------------------------------------|
|-2--2-2-2-2-2-2-2-2-2-2-2-2--1-------------------------------------|
|-2--2-2-2-2-2-2-2-2-2-2-2-2--1---2222-3333-------------------------|
     . . . . . . . . . . . .      .... ....                (8 times)

Riff 5
|---------------------------------4-5-4-----------------------------|
|---------------------------------------------5-6-5-----------------|
|-------------------------------------------------------------------|
|-7-------6------2-3--7--------7-----------6------------------------|
|-5-------4------0-1--5------5-----------4--------------------------|
|-------------------------------------------------------------------|
                             . .         . .               (3 times)

Transition 2
|-------------------------------------------------------------------|
|-------------------------------------------------------------------|
|-------------------------------------------------------------------|
|-7-------6------2-3--7-------6-6-6--2-2-3--------------------------|
|-5-------4------0-1--5-------4-4-4--0-0-1--------------------------|
|-------------------------------------------------------------------|
                              . .    . .

Riff 6
|---4--------0------------------------------------------------------|
|---4--------0------------------------------------------------------|
|---4--------0------------------------------------------------------|
|-6-6--7---2-2----2-4-5---------------------------------------------|
|-6-6--7---2-2----2-4-5---------------------------------------------|
|-4-4--5---0-0----0-2-3---------------------------------------------|
                  . .                                      (4 times)

Gtr 1
Solo 2
|-------------------------------------------------------------------|
|-------------------------------------------------------------------|
|--------------7-8-9-8-7--------------------------------------------|
|----------6-9-----------9-8-6-5------------------------------------|
|-5~/x---6-----------------------7-6-4------------------------------|
|------4-------------------------------7-6-4-3~---------------------|
       . . . .
   f/(ah)
|---------------------7---------------------------------------------|
|-*b14r-----------8-9---9-8-----------------------------------------|
|--------------9-----------9-8-6------------------------------------|
|------------9-------------------9-8-6-5----------------------------|
|-------7-10--------------------------------------------------------|
|----------------------------------------3-2-3----------------------|
        .  . . .

* Bend the note before stroking it and release slowly, also use
artificial harmonics...

|--------7-------------7-------------7-------------7----------------|
|---9-11---11-9---9-11---11-9---9-11---11-9---11-9---11-9-----------|
|-8-------------8-------------8-------------8-----------------------|
|-------------------------------------------------------------------|
|-------------------------------------------------------------------|
|-------------------------------------------------------------------|

|--------7-------------7-------------7------------------------------|
|---9-11---11-9---9-11---11-9---11-9---11-9---9-11-8----------------|
|-9-------------9-------------9-------------9--------8--------------|
|------------------------------------------------------9------------|
|-------------------------------------------------------------------|
|-------------------------------------------------------------------|

       f/(ah)
|-------------------------------------------------------------------|
|------*b14r--------------------------------------------------------|
|-------------------------------------------------------------------|
|-6-----------------------------------------------------------------|
|-------------------------------------------------------------------|
|-------------------------------------------------------------------|

* As above...

Gtr 2
Solo Riff 2
|-------------------------------------------------------------------|
|-------------------------------------------------------------------|
|-------------------------------------------------------------------|
|-------------------------------------------------------------------|
|-------------------------------------------------------------------|
|-4-4-4-4-4-4-4-4-4-4-4-4-4-4-4-4-5-5-5-5---------------------------|
  . . . . . . . . . . . . . . . . . . . .

|-------------------------------------------------------------------|
|-------------------------------------------------------------------|
|-------------------------------------------------------------------|
|-------------------------------------------------------------------|
|-------------------------------------------------------------------|
|-0-0-0-0-0-0-0-0-0-0-0-0-0-0-0-0--0-0-2-3-3-3----------------------|
  . . . . . . . . . . . . . . . .  . . . . . .             (4 times)

Play Riff 6 4 times then

Gtr 1
Riff 7
|-------------------------------------------------------------------|
|---------------------------------12/11--12--8----------------------|
|-------------------12/11--12--9------------------------------------|
|-------------------------------------------------------------------|
|-6/4-7-2-6/4-6-2---10/-9--10--7--10/-9--10--9----------------------|
|-7/6-6-4-7/6-7-4---------------------------------------------------|

|-------------------------------------------------------------------|
|---------------------------------------12/11--8--12--11--12--------|
|-------------------------12/11--12--9------------------------------|
|-------------------------------------------------------------------|
|-6/4-7-2-6/4-6-2--6-4-6--10/-9--10--7--10/-9--9--10---9--10--------|
|-7/6-6-4-7/6-7-4--7-6-7--------------------------------------------|
                                                           (2 times)

11. Heavenly Perverse

Tunning E A D G B E

Intro (slightly dist.)
|----------0--------------------------------------------------------|
|------------------1-0h1p0------0-----------------------------------|
|-------0--------0---------0------3---------------------------------|
|-----2--------2--------------------2-------------------------------|
|---2--------2----------------1-------------------------------------|
|-0-----------------------------------------------------------------|

|----------0--------------------------------------------------------|
|------------------1-0h1p0------0-----------------------------------|
|-------0--------0---------0------3---------------------------------|
|-----2--------2--------------------3-------------------------------|
|---2--------2------------------------------------------------------|
|-0---------------------------1-------------------------------------|
                                                           (2 times)

Riff 1
|-------------------------------------------------------------------|
|-------------------------------------------------------------------|
|-------------------------------------------------------------------|
|-6-6-6-6-6-6-6-6-6-6-6-6-6--7-7-7-7-7-7-7/3--3-3\6-----------------|
|-6-6-6-6-6-6-6-6-6-6-6-6-6--7-7-7-7-7-7-7/3--3-3\6-----------------|
|-4-4-4-4-4-4-4-4-4-4-4-4-4--5-5-5-5-5-5-5/1--1-1\4-----------------|
                                                           (1 time)
Riff 2a
|----0----------0--------------0----------0-------------------------|
|----0----------0--------------0----------0-------------------------|
|----0----------0--------------0----------0-------------------------|
|-2--2-----3-2--2-----3-3-3-2--2-----3-2--2------3-3-3--------------|
|-2--2-----3-2--2-----3-3-3-2--2-----3-2--2------3-3-3--------------|
|-0--0-----1-0--0-----1-1-1-0--0-----1-0--0------1-1-1--------------|
                                                           (1 time)

Play Riff 1 one time
Play Riff 2a one time
Play Riff 1 one time

Riff 2b
|-------------------------------------------------------------------|
|-------------------------------------------------------------------|
|----3----------3--------------3----------3-------------------------|
|-2--2-----3-2--2-----3-3-3-2--2-----3-2--2-----3-3-3---------------|
|-2--1-----3-2--1-----3-3-3-2--1-----3-2--1-----3-3-3---------------|
|-0--------1-0--------1-1-1-0--------1-0--------1-1-1---------------|
                                                           (1 time)

Play Riff 1 one time
Play Riff 2b one time
Play Riff 1 one time


Riff 3
|-------------------------------------------------------------------|
|-------------------------------------------------------------------|
|-------------------------------------------------------------------|
|-4-4-4-4-4-4-4-4-4-4-4-4-4-4-4-4-4-2-2-2-4-4-4---------------------|
|-4-4-4-4-4-4-4-4-4-4-4-4-4-4-4-4-4-2-2-2-4-4-4---------------------|
|-2-2-2-2-2-2-2-2-2-2-2-2-2-2-2-2-2-0-0-0-2-2-2---------------------|

|-------------------------------------------------------------------|
|-------------------------------------------------------------------|
|-------------------------------------------------------------------|
|-7-7-7-7-7-7-7-7-7-7-7-7-7-7-7-7-7-2-2-2-5-5-5---------------------|
|-7-7-7-7-7-7-7-7-7-7-7-7-7-7-7-7-7-2-2-2-5-5-5---------------------|
|-5-5-5-5-5-5-5-5-5-5-5-5-5-5-5-5-5-0-0-0-3-3-3---------------------|

|-------------------------------------------------------------------|
|-------------------------------------------------------------------|
|-------------------------------------------------------------------|
|-4-4-4-4-4-4-4-4-4-4-4-4-4-4-4-4-4-2-2-2-4-4-4---------------------|
|-4-4-4-4-4-4-4-4-4-4-4-4-4-4-4-4-4-2-2-2-4-4-4---------------------|
|-2-2-2-2-2-2-2-2-2-2-2-2-2-2-2-2-2-0-0-0-2-2-2---------------------|

|-------------------------------------------------------------------|
|-------------------------------------------------------------------|
|-------------------------------------------------------------------|
|-7-7-7-7-7-7-7-7-11-11-11-11-11-11-3-3-3-5-5-5---------------------|
|-7-7-7-7-7-7-7-7-11-11-11-11-11-11-3-3-3-5-5-5---------------------|
|-5-5-5-5-5-5-5-5--9--9--9--9--9--9-1-1-1-3-3-3---------------------|

|-------------------------------------------------------------------|
|-------------------------------------------------------------------|
|-------------------------------------------------------------------|
|-4-4-4-4-4-4-4-4-4-4-4-4-4-4-4-4-4-4-4-4-4-4-4---------------------|
|-4-4-4-4-4-4-4-4-4-4-4-4-4-4-4-4-4-4-4-4-4-4-4---------------------|
|-2-2-2-2-2-2-2-2-2-2-2-2-2-2-2-2-2-2-2-2-2-2-2---------------------|

|-------------------------------------------------------------------|
|-------------------------------------------------------------------|
|-------------------------------------------------------------------|
|-7-7-7-7-7-7-7-7-7-7-7-7-7-7-7-7-7-7-7-7-7-7-7---------------------|
|-7-7-7-7-7-7-7-7-7-7-7-7-7-7-7-7-7-7-7-7-7-7-7---------------------|
|-5-5-5-5-5-5-5-5-5-5-5-5-5-5-5-5-5-5-5-5-5-5-5---------------------|

|-------------------------------------------------------------------|
|-------------------------------------------------------------------|
|-9-9-9-9-9-9-9-9-9-9-9-9-9-9-9-9-9-9-9-9-9-9-9---------------------|
|-9-9-9-9-9-9-9-9-9-9-9-9-9-9-9-9-9-9-9-9-9-9-9---------------------|
|-7-7-7-7-7-7-7-7-7-7-7-7-7-7-7-7-7-7-7-7-7-7-7---------------------|
|-------------------------------------------------------------------|

|-------------------------------------------------------------------|
|-------------------------------------------------------------------|
|-5-5-5-5-5-5-5-5-5-5-5-5-5-5-5-5-5-5-5-5-5-5-5---------------------|
|-5-5-5-5-5-5-5-5-5-5-5-5-5-5-5-5-5-5-5-5-5-5-5---------------------|
|-3-3-3-3-3-3-3-3-3-3-3-3-3-3-3-3-3-3-3-3-3-3-3---------------------|
|-------------------------------------------------------------------|
                                                           (2 times)

Repeat the 7/9/9 and 3/5/5 chords then

Transition 1
|-------------------------------------------------------------------|
|-------------------------------------------------------------------|
|-------------------------------------------------------------------|
|-6/5--6/5----6-----------------------------------------------------|
|-6/5--6/5----6-----------------------------------------------------|
|-4/3--4/3----4-----------------------------------------------------|


Riff 4
Gtr 1
|-------------------------------------------------------------------|
|-------------------------------------------------------------------|
|-------------------------------------------------------------------|
|-2-3-6--7/6-7-6---3-6-2-3-6/5-6--6-6-6-8-8-8-----------------------|
|-2-3-6--8/7-8-6---3-6-2-3-6/5-6--7-7-7-8-8-8-----------------------|
|-0-1-4--------4---1-4-0-1-4/3-4--------6-6-6-----------------------|

Gtr 2
|-------------------------------------------------------------------|
|-------------------------------------------------------------------|
|-------------------------------------------------------------------|
|-2-3-6--7/6-7-6---3-6-2-3-6/5-6--7-7-7-8-8-8-----------------------|
|-2-3-6--7/6-7-6---3-6-2-3-6/5-6--7-7-7-8-8-8-----------------------|
|-0-1-4--5/4-5-4---1-4-0-1-4/3-4--5-5-5-6-6-6-----------------------|
                                                           (4 times)

Riff 5
|-------------------------------------------------------------------|
|-------------------------------------------------------------------|
|-----7-----7-----8-----8-----7-----7-------------------------------|
|-----5-----5-----6-----6-----5-----5-------------------------------|
|-0-0---0-0---0-0---0-0---0-0---0-0----3-3-----1-1------------------|
|------------------------------------------4-4----------------------|
  . .   . .   . .   . .   . .   . .    . . . . . .

|-------------------------------------------------------------------|
|-------------------------------------------------------------------|
|-----7-----7-----8-----8------9------9-----------------------------|
|-----5-----5-----6-----6-----11-----11-----------------------------|
|-0-0---0-0---0-0---0-0---0-0----0-0----3-3-------------------------|
|-------------------------------------------4-4-3-3-----------------|
  . .   . .   . .   . .   . .    . .    . . . . . .       (4 times)

Play Riff 4 (both Gtrs plays like Gtr 2 riff) 2 times then:

Riff 6 ?

|-------------------------------------------------------------------|
|-------------------------------------------------------------------|
|-------------------------------------------------------------------|
|-------------------------------------------------------------------|
|-------------------------------------------------------------------|
|-------------------------------------------------------------------|

|-------------------------------------------------------------------|
|-------------------------------------------------------------------|
|-------------------------------------------------------------------|
|-------------------------------------------------------------------|
|-------------------------------------------------------------------|
|-------------------------------------------------------------------|

Play Riff 5 4 times
Play Riff 2b 1 time
Play Riff 1 1 time
Play Riff 2b 1 time
Play Riff 1 1 time then:

Riff 7
Gtr 1
|----0------------------0-------------------------------------------|
|----0------------------0-------------------------------------------|
|----0------------------0---101010----------------------------------|
|-2--2---------------2--2----------999-101010-----------------------|
|-2--2---------------2--2---------------------888888-555-7----------|
|-0--0--111-111-111--0--0--------------------------------0----------|
        ... ... ...

|-0------------------0----------------------------------------------|
|-0------------------0----------------------------------------------|
|-0------------------0---101010-------------------------------------|
|-2---------------2--2----------999-101010--------------------------|
|-2---------------2--2---------------------888888-5-----------------|
|-0--111-111-111--0--0----------------------------------------------|
     ... ... ...

Gtr 2
|-------------------------------------------------------------------|
|-------------------------------------------------------------------|
|-------------------------------------------------------------------|
|-2----------------------2------------------------------------------|
|-2----------------------2------------------------------------------|
|-0---000--111-111-111---0---000--11111111--------------------------|
      ...  ... ... ...       ...  ........

|-------------------------------------------------------------------|
|-------------------------------------------------------------------|
|-------------------------------------------------------------------|
|-2----------------------2------------------------------------------|
|-2----------------------2------------------------------------------|
|-0---000--111-111-111---0---000--11111111--------------------------|
      ...  ... ... ...       ...  ........

Play Riff 1 1 time
Play Riff 7 1 time then:

End Riff
|-------------------------------------------------------------------|
|-------------------------------------------------------------------|
|-------------------------------------------------------------------|
|-666-6--666-6--666-6--666-6--777777/3-333-6--2---------------------|
|-666-6--666-6--666-6--666-6--777777/3-333-6--2---------------------|
|-444-4--444-4--444-4--444-4--555555/1-111-4--0---------------------|
  ... .  ... .  ... .  ... .



12. Satan My Master (Bathory Cover) 

Gtr I (E A D G B E) - 'Lead Guitar'
Gtr II (E A D G B E) - 'Guitar'
Gtr III (E A D G B E) - 'Guitar'

  Q=180
 4/4
  Gtr II
  E S S S S S S S S S S Q    S S S S S S S S S S S S Q
|--------------------------|----------------------------|
|--------------------------|----------------------------|
|--------------------------|----------------------------|
|--------------------------|----------------------------|
|-3---------------------2--|-------------------------1--|
|-1-1-1-1-1-1-1-1-1-1-1----|-1-1-1-1-1-1-1-1-1-1-1-1----|


  S S S S S S S S S S S S Q    S S S S S S S S E. S +S  E.
|----------------------------|------------------------------|
|----------------------------|------------------------------|
|----------------------------|------------------------------|
|----------------------------|--------------------------1---|
|-------------------------0--|-----------------4--4-(4)-----|
|-1-1-1-1-1-1-1-1-1-1-1-1----|-1-1-1-1-1-1-1-1-2--2-(2)-4---|


  E S S S S S S S S S S Q    S S S S S S S S S S S S Q
|--------------------------|----------------------------|
|--------------------------|----------------------------|
|--------------------------|----------------------------|
|--------------------------|----------------------------|
|-3---------------------2--|-------------------------1--|
|-1-1-1-1-1-1-1-1-1-1-1----|-1-1-1-1-1-1-1-1-1-1-1-1----|


                                 Gtrs II, III
  S S S S S S S S S S S S Q    S S S S S S S S E. S +S  E.
|----------------------------|------------------------------|
|----------------------------|------------------------------|
|----------------------------|------------------------------|
|----------------------------|--------------------------1---|
|-------------------------0--|-----------------4--4-(4)-----|
|-1-1-1-1-1-1-1-1-1-1-1-1----|-1-1-1-1-1-1-1-1-2--2-(2)-4---|


  E S S S S S S S S S S Q    S S S S S S S S S S S S Q
|--------------------------|----------------------------|
|--------------------------|----------------------------|
|--------------------------|----------------------------|
|--------------------------|----------------------------|
|-3---------------------2--|-------------------------1--|
|-1-1-1-1-1-1-1-1-1-1-1----|-1-1-1-1-1-1-1-1-1-1-1-1----|


  S S S S S S S S S S S S Q    S S S S S S S S E. S +S  E.
|----------------------------|------------------------------|
|----------------------------|------------------------------|
|----------------------------|------------------------------|
|----------------------------|--------------------------1---|
|-------------------------0--|-----------------4--4-(4)-----|
|-1-1-1-1-1-1-1-1-1-1-1-1----|-1-1-1-1-1-1-1-1-2--2-(2)-4---|


  E S S S S S S S S S S Q    S S S S S S S S S S S S Q
|--------------------------|----------------------------|
|--------------------------|----------------------------|
|--------------------------|----------------------------|
|--------------------------|----------------------------|
|-3---------------------2--|-------------------------1--|
|-1-1-1-1-1-1-1-1-1-1-1----|-1-1-1-1-1-1-1-1-1-1-1-1----|


  S S S S S S S S S S S S Q    S S S S S S S S E. S +S  E.
|----------------------------|------------------------------|
|----------------------------|------------------------------|
|----------------------------|------------------------------|
|----------------------------|--------------------------1---|
|-------------------------0--|-----------------4--4-(4)-----|
|-1-1-1-1-1-1-1-1-1-1-1-1----|-1-1-1-1-1-1-1-1-2--2-(2)-4---|


  E S S S S S S S S S S S S S S   E S S S S S S S S S S S S S S
|-------------------------------|--------------------------------|
|-------------------------------|--------------------------------|
|-------------------------------|--------------------------------|
|-------------------------------|--------------------------------|
|-4-----------------------------|-5-3-3-3-3-3-3-3-3-3-3-3-3-3-3--|
|-2-2-2-2-2-2-2-2-2-2-2-2-2-2-2-|-3------------------------------|


  E S S S S S S S S S S S S S S   E S S S S S S S S S S S S S S
|-------------------------------|--------------------------------|
|-------------------------------|--------------------------------|
|-------------------------------|--------------------------------|
|-------------------------------|--------------------------------|
|-4-----------------------------|-5-3-3-3-3-3-3-3-3-3-3-3-3-3-3--|
|-2-2-2-2-2-2-2-2-2-2-2-2-2-2-2-|-3------------------------------|


  E S S S S S S S S S S S S S S   E S S S S S S S S S S S S S S
|-------------------------------|--------------------------------|
|-------------------------------|--------------------------------|
|-------------------------------|--------------------------------|
|-------------------------------|--------------------------------|
|-4-----------------------------|-5-3-3-3-3-3-3-3-3-3-3-3-3-3-3--|
|-2-2-2-2-2-2-2-2-2-2-2-2-2-2-2-|-3------------------------------|


  E S S S S S S S S S S S S S S   E S S S S S S S S S S S S S S
|-------------------------------|--------------------------------|
|-------------------------------|--------------------------------|
|-------------------------------|--------------------------------|
|-------------------------------|--------------------------------|
|-4-----------------------------|-5-3-3-3-3-3-3-3-3-3-3-3-3-3-3--|
|-2-2-2-2-2-2-2-2-2-2-2-2-2-2-2-|-3------------------------------|


  E S S S S S S S S S S Q    S S S S S S S S S S S S Q
|--------------------------|----------------------------|
|--------------------------|----------------------------|
|--------------------------|----------------------------|
|--------------------------|----------------------------|
|-3---------------------2--|-------------------------1--|
|-1-1-1-1-1-1-1-1-1-1-1----|-1-1-1-1-1-1-1-1-1-1-1-1----|


  S S S S S S S S S S S S Q    S S S S S S S S E. S +S  E.
|----------------------------|------------------------------|
|----------------------------|------------------------------|
|----------------------------|------------------------------|
|----------------------------|--------------------------1---|
|-------------------------0--|-----------------4--4-(4)-----|
|-1-1-1-1-1-1-1-1-1-1-1-1----|-1-1-1-1-1-1-1-1-2--2-(2)-4---|


  E S S S S S S S S S S Q    S S S S S S S S S S S S Q
|--------------------------|----------------------------|
|--------------------------|----------------------------|
|--------------------------|----------------------------|
|--------------------------|----------------------------|
|-3---------------------2--|-------------------------1--|
|-1-1-1-1-1-1-1-1-1-1-1----|-1-1-1-1-1-1-1-1-1-1-1-1----|


  S S S S S S S S S S S S Q    S S S S S S S S E. S +S  E.
|----------------------------|------------------------------|
|----------------------------|------------------------------|
|----------------------------|------------------------------|
|----------------------------|--------------------------1---|
|-------------------------0--|-----------------4--4-(4)-----|
|-1-1-1-1-1-1-1-1-1-1-1-1----|-1-1-1-1-1-1-1-1-2--2-(2)-4---|


  E S S S S S S S S S S S S S S   E S S S S S S S S S S S S S S
|-------------------------------|--------------------------------|
|-------------------------------|--------------------------------|
|-------------------------------|--------------------------------|
|-------------------------------|--------------------------------|
|-4-----------------------------|-5-3-3-3-3-3-3-3-3-3-3-3-3-3-3--|
|-2-2-2-2-2-2-2-2-2-2-2-2-2-2-2-|-3------------------------------|


  E S S S S S S S S S S S S S S   E S S S S S S S S S S S S S S
|-------------------------------|--------------------------------|
|-------------------------------|--------------------------------|
|-------------------------------|--------------------------------|
|-------------------------------|--------------------------------|
|-4-----------------------------|-5-3-3-3-3-3-3-3-3-3-3-3-3-3-3--|
|-2-2-2-2-2-2-2-2-2-2-2-2-2-2-2-|-3------------------------------|


  E S S S S S S S S S S S S S S   E S S S S S S S S S S S S S S
|-------------------------------|--------------------------------|
|-------------------------------|--------------------------------|
|-------------------------------|--------------------------------|
|-------------------------------|--------------------------------|
|-4-----------------------------|-5-3-3-3-3-3-3-3-3-3-3-3-3-3-3--|
|-2-2-2-2-2-2-2-2-2-2-2-2-2-2-2-|-3------------------------------|


  E S S S S S S S S S S S S S S   E S S S S S S S S S S S S S S
|-------------------------------|--------------------------------|
|-------------------------------|--------------------------------|
|-------------------------------|--------------------------------|
|-------------------------------|--------------------------------|
|-4-----------------------------|-5-3-3-3-3-3-3-3-3-3-3-3-3-3-3--|
|-2-2-2-2-2-2-2-2-2-2-2-2-2-2-2-|-3------------------------------|


  E S S S S S S E S S S S S S   E S S S S S S E S S S S S S
|-----------------------------|-----------------------------|
|-----------------------------|-----------------------------|
|-----------------------------|-----------------------------|
|-----------------------------|-----------------------------|
|-3-------------4-------------|-5-------------6-------------|
|-1-1-1-1-1-1-1-2-2-2-2-2-2-2-|-3-3-3-3-3-3-3-4-4-4-4-4-4-4-|


  E S S S S S S E S S S S S S   E S S S S S S E S S S S S S
|-----------------------------|-----------------------------|
|-----------------------------|-----------------------------|
|-----------------------------|-----------------------------|
|-----------------------------|-----------------------------|
|-3-------------4-------------|-5-------------6-------------|
|-1-1-1-1-1-1-1-2-2-2-2-2-2-2-|-3-3-3-3-3-3-3-4-4-4-4-4-4-4-|


  E S S S S S S E S S S S S S   E S S S S S S E S S S S S S
|-----------------------------|-----------------------------|
|-----------------------------|-----------------------------|
|-----------------------------|-----------------------------|
|-----------------------------|-----------------------------|
|-3-------------4-------------|-5-------------6-------------|
|-1-1-1-1-1-1-1-2-2-2-2-2-2-2-|-3-3-3-3-3-3-3-4-4-4-4-4-4-4-|


  Gtr I
  W                             +W                               W
|-8---------------------------|-(8)---------------------------|-20------------|
|-----------------------------|-------------------------------|---------------|
|-----------------------------|-------------------------------|---------------|
|-----------------------------|-------------------------------|---------------|
|-----------------------------|-------------------------------|---------------|
|-----------------------------|-------------------------------|---------------|
|
| Gtrs II, III
| E S S S S S S E S S S S S S    E  S S S S S S E S S S S S S    H.      E E
|-----------------------------|-------------------------------|---------------|
|-----------------------------|-------------------------------|---------------|
|-----------------------------|-------------------------------|---------------|
|-----------------------------|-------------------------------|--5-------3-5--|
|-3-------------4-------------|--5--------------6-------------|--3---------3--|
|-1-1-1-1-1-1-1-2-2-2-2-2-2-2-|--3--3-3-3-3-3-3-4-4-4-4-4-4-4-|----------6----|


   +H      E  E  +Q      +W
|-(20)----------------|---------------|
|---------------------|---------------|
|---------------------|---------------|
|---------------------|---------------|
|---------20-22-(22)--|-(22)----------|
|---------------------|---------------|
|
|   H.            Q       H.      E E
|---------------------|---------------|
|---------------------|---------------|
|---------------------|---------------|
|---6-------------6---|---5-------3-5-|
|---4-------------4---|---3---------3-|
|---------------------|-----------6---|


   S   S  S  S  S  S  S  S  S  S  S  S  S  S  S  S
|---------------------------------------------------|
|---------------------------------------------------|
|---------------------------------------------------|
|-21--22-21-22-21-22-21-22-21-22-21-22-21-22-21-22--|
|---------------------------------------------------|
|---------------------------------------------------|
|
|  H.                                   Q
|---------------------------------------------------|
|---------------------------------------------------|
|---------------------------------------------------|
|--6------------------------------------6-----------|
|--4------------------------------------4-----------|
|---------------------------------------------------|


   S   S  S  S  S  S  S  S  S  S  S  S  S  S  S  S
|--------------------------------------------------|
|--------------------------------------------------|
|--------------------------------------------------|
|-21--22-21-22-21-22-21-22-21-22-21-22-21-22-21-22-|
|--------------------------------------------------|
|--------------------------------------------------|
|
|  H.                                   E     E
|--------------------------------------------------|
|--------------------------------------------------|
|--------------------------------------------------|
|--5------------------------------------3-----5----|
|--3------------------------------------------3----|
|---------------------------------------6----------|


   S   S  S  S  S  S  S  S  H
|---------------------------------|
|---------------------------------|
|---------------------------------|
|-21--22-21-22-21-22-21-22-21-----|
|---------------------------------|
|---------------------------------|
|
|  H.                          Q
|---------------------------------|
|---------------------------------|
|---------------------------------|
|--6---------------------------6--|
|--4---------------------------4--|
|---------------------------------|


   S   S  S  S  S  S  S  S  S  S  S  S  S  S  S  S
|--------------------------------------------------|
|--------------------------------------------------|
|--------------------------------------------------|
|--------------------------------------------------|
|--------------------------------------------------|
|-20--20-20-20-20-20-20-20-20-20-20-20-20-20-20-20-|
|
|  H.                                   E     E
|--------------------------------------------------|
|--------------------------------------------------|
|--------------------------------------------------|
|--5------------------------------------3-----5----|
|--3------------------------------------------3----|
|---------------------------------------6----------|


   S   S  S  S  S  S  S  S  E  E  E  E    W
|--------------------------20-20-20-20-|-20----|
|--------------------------------------|-------|
|--------------------------------------|-------|
|--------------------------------------|-------|
|--------------------------------------|-------|
|-20--20-20-20-20-20-20-20-------------|-------|
|
|  H.                             Q       W
|--------------------------------------|-------|
|--------------------------------------|-------|
|--------------------------------------|-------|
|--6------------------------------6----|-------|
|--4------------------------------4----|--4----|
|--------------------------------------|--2----|


   E  S  S  S  S  S  S  S  S  S  S  S  S  S  S
|----------------------------------------------|
|----19-19-19-19-19-19-19-19-19-19-19-19-19-19-|
|-21-------------------------------------------|
|----------------------------------------------|
|----------------------------------------------|
|----------------------------------------------|
|
|  E  S  S  S  S  S  S  S  S  S  S  Q
|----------------------------------------------|
|----------------------------------------------|
|----------------------------------------------|
|----------------------------------------------|
|--3--------------------------------2----------|
|--1--1--1--1--1--1--1--1--1--1--1-------------|


   E    S  S  S  S  S  S  S  S  S  S  S  S  S  S
|------16-16-16-16-16-16-16-16-16-16-16-16-16-16-|
|-17---------------------------------------------|
|------------------------------------------------|
|------------------------------------------------|
|------------------------------------------------|
|------------------------------------------------|
|
|  S S  S  S  S  S  S  S  S  S  S  S  Q
|------------------------------------------------|
|------------------------------------------------|
|------------------------------------------------|
|------------------------------------------------|
|-------------------------------------1----------|
|--1-1--1--1--1--1--1--1--1--1--1--1-------------|


   E    S  S  S  S  S  S  S  S  S  S  S  S  S  S
|-14---17-17-17-17-17-17-17-17-17-17-17-17-17-17-|
|------------------------------------------------|
|------------------------------------------------|
|------------------------------------------------|
|------------------------------------------------|
|------------------------------------------------|
|
|  S S  S  S  S  S  S  S  S  S  S  S  Q
|------------------------------------------------|
|------------------------------------------------|
|------------------------------------------------|
|------------------------------------------------|
|-------------------------------------0----------|
|--1-1--1--1--1--1--1--1--1--1--1--1-------------|


   W
|-17---------------------------|
|------------------------------|
|------------------------------|
|------------------------------|
|------------------------------|
|------------------------------|
|
|  S S S S S S S S E. S +S  E.
|------------------------------|
|------------------------------|
|------------------------------|
|---------------------------1--|
|------------------4--4-(4)----|
|--1-1-1-1-1-1-1-1-2--2-(2)-4--|


  Gtrs II, III
  E S S S S S S S S S S S S S S   E S S S S S S S S S S S S S S
|-------------------------------|--------------------------------|
|-------------------------------|--------------------------------|
|-------------------------------|--------------------------------|
|-------------------------------|--------------------------------|
|-4-----------------------------|-5-3-3-3-3-3-3-3-3-3-3-3-3-3-3--|
|-2-2-2-2-2-2-2-2-2-2-2-2-2-2-2-|-3------------------------------|


  E S S S S S S S S S S S S S S   E S S S S S S S S S S S S S S
|-------------------------------|--------------------------------|
|-------------------------------|--------------------------------|
|-------------------------------|--------------------------------|
|-------------------------------|--------------------------------|
|-4-----------------------------|-5-3-3-3-3-3-3-3-3-3-3-3-3-3-3--|
|-2-2-2-2-2-2-2-2-2-2-2-2-2-2-2-|-3------------------------------|


  E S S S S S S S S S S S S S S   E S S S S S S S S S S S S S S
|-------------------------------|--------------------------------|
|-------------------------------|--------------------------------|
|-------------------------------|--------------------------------|
|-------------------------------|--------------------------------|
|-4-----------------------------|-5-3-3-3-3-3-3-3-3-3-3-3-3-3-3--|
|-2-2-2-2-2-2-2-2-2-2-2-2-2-2-2-|-3------------------------------|


  E S S S S S S S S S S S S S S   E S S S S S S S S S S S S S S
|-------------------------------|--------------------------------|
|-------------------------------|--------------------------------|
|-------------------------------|--------------------------------|
|-------------------------------|--------------------------------|
|-4-----------------------------|-5-3-3-3-3-3-3-3-3-3-3-3-3-3-3--|
|-2-2-2-2-2-2-2-2-2-2-2-2-2-2-2-|-3------------------------------|


  E S S S S S S S S S S Q    S S S S S S S S S S S S Q
|--------------------------|----------------------------|
|--------------------------|----------------------------|
|--------------------------|----------------------------|
|--------------------------|----------------------------|
|-3---------------------2--|-------------------------1--|
|-1-1-1-1-1-1-1-1-1-1-1----|-1-1-1-1-1-1-1-1-1-1-1-1----|


  S S S S S S S S S S S S Q    S S S S S S S S E. S +S  E.
|----------------------------|------------------------------|
|----------------------------|------------------------------|
|----------------------------|------------------------------|
|----------------------------|--------------------------1---|
|-------------------------0--|-----------------4--4-(4)-----|
|-1-1-1-1-1-1-1-1-1-1-1-1----|-1-1-1-1-1-1-1-1-2--2-(2)-4---|


  E S S S S S S S S S S Q    S S S S S S S S S S S S Q
|--------------------------|----------------------------|
|--------------------------|----------------------------|
|--------------------------|----------------------------|
|--------------------------|----------------------------|
|-3---------------------2--|-------------------------1--|
|-1-1-1-1-1-1-1-1-1-1-1----|-1-1-1-1-1-1-1-1-1-1-1-1----|


  S S S S S S S S S S S S Q    S S S S S S S S E. S +S  E.
|----------------------------|------------------------------|
|----------------------------|------------------------------|
|----------------------------|------------------------------|
|----------------------------|--------------------------1---|
|-------------------------0--|-----------------4--4-(4)-----|
|-1-1-1-1-1-1-1-1-1-1-1-1----|-1-1-1-1-1-1-1-1-2--2-(2)-4---|


  E S S S S S S S S S S Q    S S S S S S S S S S S S Q
|--------------------------|----------------------------|
|--------------------------|----------------------------|
|--------------------------|----------------------------|
|--------------------------|----------------------------|
|-3---------------------2--|-------------------------1--|
|-1-1-1-1-1-1-1-1-1-1-1----|-1-1-1-1-1-1-1-1-1-1-1-1----|


  S S S S S S S S S S S S Q    S S S S S S S S E. S +S  E.
|----------------------------|------------------------------|
|----------------------------|------------------------------|
|----------------------------|------------------------------|
|----------------------------|--------------------------1---|
|-------------------------0--|-----------------4--4-(4)-----|
|-1-1-1-1-1-1-1-1-1-1-1-1----|-1-1-1-1-1-1-1-1-2--2-(2)-4---|


  E S S S S S S S S S S Q    S S S S S S S S S S S S Q
|--------------------------|----------------------------|
|--------------------------|----------------------------|
|--------------------------|----------------------------|
|--------------------------|----------------------------|
|-3---------------------2--|-------------------------1--|
|-1-1-1-1-1-1-1-1-1-1-1----|-1-1-1-1-1-1-1-1-1-1-1-1----|


  S S S S S S S S S S S S Q    S S S S S S S S E. S +S  E.   Q  Q  H
|----------------------------|-----------------------------|------------*|
|----------------------------|-----------------------------|------------*|
|----------------------------|-----------------------------|------------*|
|----------------------------|--------------------------1--|------------*|
|-------------------------0--|-----------------4--4-(4)----|-3----------*|
|-1-1-1-1-1-1-1-1-1-1-1-1----|-1-1-1-1-1-1-1-1-2--2-(2)-4--|-1----------*|
comments
We did not receive enough feedback on this tab! Please rate:
print report bad tab
1 2 3 4 5
3 comments total.
0 reply
nofx_2525 wrote on April 13 2006, 07:08 pm

Shit man, compliment to you TheMutts, how ling did this take you to tab out if u didnt copy and paste?? 2 weeks? :D

peace out, great tab

0 reply
TMA-2 wrote on August 5 2006, 10:26 am

uh, you just copied and pasted these. it might be nice to give some credit to the original authors.

0 reply
Derz wrote on October 6 2007, 05:42 pm

very nice!
but Vredesbyrd is wrong.
you donĀ“t have all parts!

I want to post or [tab]
guest
You may want to rate the tab now too:
select rating
Please do not post tabs as comments. Select "correction" instead!