Oops, an error
Loading. Please wait.

Enthrone Darkness Triumphant Tab

4,122 views 6 this week
2 commentsread comments
1 2 3 4 5
excellent!
x 3
add to favorites launch autoscroll
font size
0
reset
Autoscroll
+/-
esc
set tempo
stop
Contributor
WARNING: You are trying to view
                                    content from Ultimate-Guitar.com
                                    in an unauthorized application,
                                    which is prohibited.

                                    Please use an official Ultimate
                                    Guitar Tabs application for iPhone,
                                    iPad or Android to access legitimate
                                    chords, guitar, bass, and drum tabs
                                    from Ultimate-Guitar.com database.

                                    Type "ultimate guitar tabs" in Apple
                                    App Store's or Android Market's
                                    search to find the application.
1. Mourning palace

MOURNING PALACE

Intro (keyboard)

Riff A
|-----------|
|-----------|
|-----------|Gtrs
|-4-7-6-9---|I&II
|-2-5-4-7---|
|-----------|
    . .


*Riff B                                      6tx
|-----------------------------------------------|
|-----------------------------------------------|
|-----------------------------------------------|Gtrs
|-------------------------------------4-7-6-9---|I&II
|-4-----4-----4-----4-----4-----4-----2-5-4-7---|
|-2-222-2-222-2-222-2-222-2-222-2-222-----------|


*Last time pm chords D5 & C#


Riff C
|-----------------------------------------------------|
|-----------------------------------------------------|
|-----------------------------------------------------|
|-------------------------9-----9----8----------------|
|-4-----4-----4-----4-----7-777-7-77-6----9-----9-----|
|-2-222-2-222-2-222-2-222-----------------7-777-7-777-|
|   ...   ...   ...   ...   ...   ..        ...   ...
|
|
|-------------------------------------------------|
|-------------------------------------------------|
|-------------------------------------------------|
|-------------------------9-----------------------|
|-4-----4-----4-----4-----7-777-9-7-6-------------|
|-2-222-2-222-2-222-2-222-------------7-777-7-5-4-|
|   ...   ...   ...   ...   ...         ... . . .
|
|
|-----------------------------------------------------|
|-----------------------------------------------------|
|-----------------------------------------------------|
|-------------------------9-----9----8----------------|
|-4-----4-----4-----4-----7-777-7-77-6----9-----9-----|
|-2-222-2-222-2-222-2-222-----------------7-777-7-777-|
|   ...   ...   ...   ...   ...   ..        ...   ...
|
|                                                2tx
|---------------------------------------------------|
|---------------------------------------------------|
|---------------------------------------------11~---|
|-------------------------9-------------------------|
|-4-----4-----4-----4-----7-777-9-7-6-------9-------|
|-2-222-2-222-2-222-2-222-------------7-777---------|
    ...   ...   ...   ...   ...         ...


Riff B 4tx
Riff C 2tx


Fill


*Riff D                                            6tx
|-----------------------------------------------------|
|-----------------------------------------------------|
|-----------------------------------------------------|
|-----------------------5-------4-------5------4------|
|-3---2---2-5-2-3---2---7-------7-------7------7------|
|-5---5---5-5-5-5---5---------------------------------|


*Sounds like chords are tremelo picked.


Riff E
|-----------------------------------------------------------------------|
|-----------------------------------------------------------------------|
|-----------------------------------------------------------------------|
|-----9-----8-----9-----8-----9-----8-5---7-8-------9-----8-----9-----8-|
|-------------------------------------3---5-6---------------------------|
|-0-0---0-0---0-0---0-0---0-0---0-0-------------0-0---0-0---0-0---0-0---|
| . .   . .   . .   . .   . .   . .             . .   . .   . .   . .
|
|
|                  4tx
|---------------------|
|---------------------|
|---------------------|
|-----9-----8-5---8-7-|
|-------------3---6-5-|
|-0-0---0-0-----------|
  . .   . .


Riff E.1                                                     2tx
|---------------------------------------------------------------|
|---------------------------------------------------------------|
|---------------------------------------------------------------|Gtrs
|-----9-----8-----9-----5---7-8-------9-----8-----9-----5---8-7-|I&II
|-----------------------3---5-6-------------------------3---6-5-|
|-0-0---0-0---0-0---0-0-----------0-0---0-0---0-0---0-0---------|
  . .   . .   . .   . .           . .   . .   . .   . .


Riff D 6tx


Riff F
|-----------------------------------------------------------------------|
|-----------------------------------------------------------------------|
|-----------------------------------------------------------------------|
|-----------4-4-4-4-4-----------5-5-5-5-5-4-4-4-4-4-2-2-2-2-2-----------|
|-2-2-2-2-2-----------2-2-2-2-2-----------------------------------------|
|-------------------------------------------------------------3-3-3-3-3-|
|
|
|                                          8tx
|---------------------------------------------|
|---------------------------------------------|
|---------------------------------------------|
|---------------------------------5-5-5-4-4-4-|
|-5-5-5-5-5-----------------2-2-2-------------|
|-----------3-3-3-3-3-0-0-0-------------------|


Riff G                                                         4tx
|-----------------------------------------------------------------|
|-----------------------------------------------------------------|
|-----------------------------4-----------------------------------|Gtrs
|-----4---4h5-4p2-----4---4h5---------4---4h5-4p2-------------5-4-|I&II
|-2-----2---------2-----2---------2-----2-------------5p4-2-4-----|
|-------------------------------------------------3---------------|
        .               .               .                 . . . .


Riff F 4tx


Ending
|------|
|------|
|------|
|------|
|-8-9\-|
|-6-7\-|
  .


  
 
2. Spellbound (by the devil)

a
 (intro)
 |-----|
 |-----|
 |--6--|  4x
 |--6--|
 |--4--|
 |-----|

b
|----------------|
|----------------|
|---6-----7-6-4--| 8x
|---6-----7-6-4--|
|---4-----5-4-2--|
|----------------|

c
|------------------------|
|------------------------|
|--------6\5-------5/6---| 6x
|--------6\5-------5/6---|
|--------4\3-------3/4---|
|--0-0-0-----0-0-0-------|

d
|-------------------|
|-------------------|
|-7-6-5--5-5--8-----|
|-7-6-5--5-5--8-----| 4x
|-5-4-3--3-3--6-----|
|----------------0--|

(repeat c 4x)

e
|------------------------|
|------------------------|
|------------------------|  2x
|-2--3--2--3--2--3--2--3-|
|-2--3--2--3--2--3--2--3-|
|-0--1--0--1--0--1--0--1-|


f
|----------------|
|----------------|
|-6-6-6--6-6-7---| 4x
|-6-6-6--6-6-7---|
|-4-4-4--4-4-5---|
|----------------|

(repeat e 2x)

(repeat f 4x)
g
|------------------|
|------------------|
|-6---2---5--------| 12x
|-6---2---5--7-6---|
|-4---0---3--7-6---|
|------------5-4---|

(pause - keyboard solo)
h
|--------------|
|--------------|
|-2------------|  4x
|-2--5--3--5---|
|-0--5--3--5---|
|----3--1--3---|


i
|-----------------------------------------------------|
|-----------------------7-6--------------7-6h7p6------|  (play solo riff till fade-out)
|-----5-6---6-5---5-6---------5-6---5-6----------8-6--|
|---8-----8-----8-----8-----8-----8------------------8|
|-----------------------------------------------------|
|-----------------------------------------------------|

  
  
 
3. In death's embrace

Riff 1

|--------------------------------------------|
|--------------------------------------------|
|--------------------------------------------|
|-2---------------5----2---------------5-----|
|-2---------------3----2---------------3-----|
|-0-0-0-0-0-0-0-0------0-0-0-0-0-0-0-0-------|
  . . . . . . . .        . . . . . . .

1.ending

|-----------------------------------------|
|-----------------------------------------|
|-----------------------------------------|
|-7---------7---------5---------5---------|
|-5-5-5-5-5-5-5-5-5-5-3-3-3-3-3-3-3-3-3-3-|
|-----------------------------------------|
    . . . .   . . . .   . . . .   . . . .

2.ending

|-----------------------------------|
|-----------------------------------|
|-----------------------------------|
|-7---------7-----------------------|
|-5-5-5-5-5-5-5-5-5-5-7---------5-4-|
|---------------------5-5-5-5-5-3-2-|
    . . . .   . . . .   . . . .


Verse

|------------------------------------|
|------------------------------------|
|------------------------------------|
|-2222222222222222-------------------|
|-0000000000000000--3333333333333333-|
|-------------------1111111111111111-|

Riff 2

|--------------------------------|
|--------------------------------|<- Listen the record
|---------7-77-77----------------|   how many times these
|3-33-33--7-77-77--7-77---7-77---|   chords are played.
|3-33-33--5-55-55--7-77---7-77---|
|1-11-11-----------5-55-0-5-55-0-|

Fill (guitar 2)

|----------|
|----------|
|----------|
|-7-5-7-8--|
|----------|
|----------|
  . . .

Riff 3 (Lower tuning would maybe help here
        because that first chord sounds like
        it would be played lower but it sounds
        ok like that too)

|-----------------------------|
|-----------------------------|
|-----------------------------|
|-7----3----5----7----3----5--|
|-5----3----5----5----3----5--|
|-5----1----3----5----1----3--|

Then these same chords but faster and
finally palm-muted and still faster.

Then riff 2

Then verse again

Riff 4 (guitar plays only these chords.Synth plays some
        other things but guitar plays only these few times)

|----------------------------------------------------|
|----------------------------------------------------|
|----------------------------------------------------|
|---------------------------555555555555555555555555-|
|-222222222222222222222222--333333333333333333333333-|
|-000000000000000000000000---------------------------|

Then solo

Guitar 2 plays under guitar solo same chords as above
but palm-muted.
I didn't mark vibrato anywhere. Use it like you want.

 E5           C5            E5
|---------------------------------------------|
|--------------------------------------10-12--|
|12----11--7--9-7-9---/12---7-9-7--/12--------|
|---------------------------------------------|
|---------------------------------------------|
|---------------------------------------------|

                               C5
|---------------10-------------------------|
|------------10----13h15p13-12-13\8-8-10-12|
|-7-9-7--/12-------------------------------|
|------------------------------------------|
|------------------------------------------|
|------------------------------------------|

                              E5
|---------------------------------------------------|
|---------------------------------------------------|
|14-16-12-14-11-12-9-11-7-9--/12-12-12-14-12-11-7-9-|
|---------------------------------------------------|
|---------------------------------------------------|
|---------------------------------------------------|
         C5
|--------------12-15p12----------12-15p12-----------|
|--------12-13----------13-12-13----------13--13-12-|
|-/12-14--------------------------------------------|
|---------------------------------------------------|
|---------------------------------------------------|
|---------------------------------------------------|
                     E5
|------------------------------------------------------|
|-12h13p12--------------------12--------------12-13-15-|<-not sure
|----------12-14-12--------14-----------12-14----------|  about this
|--------------------12-14--------12-14----------------|
|------------------------------------------------------|
|------------------------------------------------------|
            C5
|----------------------------------------------------|
|13-12-12---13-12h13p12------------------------------|
|-----------------------14-12-11---------------------|
|--------------------------------14-12-10------------|
|------------------------------------------14-12-10--|
|----------------------------------------------------|
                                    E5
|-------------------------------------------|
|-------------------------------------------|
|-------------------------------------------|
|--------------------------9-10-12-/14-14---|
|------------------9-10-12------------------|
|-14-12-10-8-10-12--------------------------|

Then riff 1 few times and that's it.

  
  
 
4. Relinquishment of spirit and flesh
  
Riff 1: (Play fast) 2 times
|---------------------------------------------|
|---------------------------------------------|
|---------------------------------------------|
|-----9h10-9-----9h10-9------8h9-8-----8h9-8--|
|-777--------777---------666-------666--------|
|---------------------------------------------|

2 times
|------------------------------------------------------|
|------------------------------------------------------|
|------------------------------------------------------|
|-----11h12-11-----11h12-11-----10h11-10-----10h11-10--|
|-999----------999----------888----------888-----------|
|------------------------------------------------------|


Riff 2:
|-------------------------------------|
|-------------------------------------|
|-------------------------------------|
|-------------------------------------|
|-2222222222222222-333333333333333----|
|-0000000000000000-111111111111111----|

 ...King of tempest and storms...

Riff 1 again

Riff 3:
|-----------------------------------|
|-----------------------------------|
|-----------------------------------|
|--9-999--7-777--9-999-----------8--|
|--7-777--5-555--7-777--10/9/10--6--|
|-----------------------8-/7/8------|


Riff 4: (This is great riff)
|--------------------------------------------------|
|--------------------------------------------------|
|--------------------------------------------------|
|--------------------------------------------------|
|-2--2--5/4---2--2--5/4---2--2--5/4---2--2--5/4/5--|
|-0--0--3/2---0--0--3/2---0--0--3/2---0--0--3/2/3--|

...Revealing Thy powers in vision and dreams...

Riff 5:
|---------------------------------|
|---------------------------------|
|---------------------------------|
|-777777777777777-66666666666666--|
|-555555555555555-44444444444444--|
|---------------------------------|


Riff 6:
|------------------------------------------------------|
|------------------------------------------------------|
|------------------------------------------------------|
|------------------------------------------------------|
|-2222222222222222--3333333333333333-7777777777777777--|
|-0000000000000000--1111111111111111-5555555555555555--|
  ................  ................ ................

  ...I entreat You with devotion...

Riff 1 again

  
 
5. The night masquerade
  
Riff 1:
|--------------------------------------|
|--------------------------------------|
|--------------------------------------|
|-------99999--------------------------|
|-77777-------777-99999-1010101010-999-|
|--------------------------------------|


Riff 2:
|---------------|
|---------------|
|---------------|
|-9---9---------|
|-7---7---9---9-|
|---------7---7-|


Riff 3:                              Fill:
|----------------------------------| |------------|
|----------------------------------| |------------|
|----------------------------------| |----9----9--|
|----------------------------------| |------------|
|-2-22-2--2-22-2--2-22-2--7-9-10---| |-77---77----|
|-0-00-0--0-00-0--0-00-0--5-7-8----| |------------|
                                       ..   ..


Riff 4:
|-------------------------------------------------------------------------|
|-------------------------------------------------------------------------|
|-------------------------------------------------------------------------|
|-------------------------------------------------------------------------|
|------999--101010-999-----999-101010-999-77777777777777-55555555-444-555-|
|-777------------------777------------------------------------------------|

Riff 5:
|---------------------------------------------|
|---------------------------------------------|
|---------------------------------------------|
|---------------------------------------------|
|-9999999999999999--77777777-55555555-7777777-|
|-7777777777777777--55555555-33333333-5555555-|

  


 
6. Tormentor of christian souls

Riff 1x a bunch         Riff 2a                      2b
--------------------    ---------------------------/------------------/
--------------------    ---------------------------/------------------/
--------------------    ---------------------------/------------------/
-6-6--10-9--8--7----    ---------------------------/------------------/
-4-4--8--7--6--5----    --5..--7..--8..--7..--5...-/--1..--3..--4..---/
2c
----------------
----------------
----------------
----------------
----------------
-1..--4..--3..--
(a+b)+(a+c)2
Riff 3 x1 (Satan!!!)
-----------------------------------------
-----------------------------------------
-----------------------------------------
-----4/5-4------7\5--4/5-4--4/5-4--5--5--
-----2/3-2------5\3--2/3-2--2/3-2--3--3--
-0-0--------0-0--------------------------
 pm.        pm.
Riff 4a                4b
--------------------   ------------------
--------------------   ------------------
--------------------   ------------------
-4-------4/5-4-4/5--   -4------4-5/7-5/7-
-2222222-2/3-2-2/3--   -222222-2-3/5-3/5-
--------------------   ------------------
  pm....                 pm...
((a*3)+b)4
Riff 5*2
-----------------------------------------
-----------------------------------------
-----------------------------------------
-----4/5-4------7\5--4/5-4--4/5-4--5--5--
-----2/3-2------5\3--2/3-2--2/3-2--3--3--
-0-0--------0-0--------------------------
 pm.        pm.
-----------------------------------------
-----------------------------------------
-----------------------------------------
-----4/5-4------7\5--4/5-4--4/5-4--7--7--
-----2/3-2------5\3--2/3-2--2/3-2--5--5--
-0-0--------0-0--------------------------
 pm.        pm.

Riff 6*5
--------------------------------------------------------------------
--------------------------------------------------------------------
--------------------------------------------------------------------
--------------------------------------------------------------------
--------------------------------------------------------------------
-0000000--777777--666666-------0000000---777777--66666---1010101010-
pm..................................................................

Riff 7*2
-----------------------
-----------------------
-----------------------
----4--3------4--3--7--
-2--2--1---2--2--1--5--
-0---------0-----------
Riff 8*4
-----------------------------------------------
-----------------------------------------------
-----------------------------------------------
----------------------------------6-6-6-6-6-6--
----------------------------------4-4-4-4-4-4--
-2-0-0-2-3-2-3-2--2-0-0-2-3-2-3-2--------------
pm...............................
Riff 9x2
--------------------------------
--------------------------------
--------------------------------
--------------------------------
-------------/7-------------/7--
--2000000000-----2000000000-----
  pm........     pm........
Riff 10x2
----------------------------------
----------------------------------
----------------------------------
----------------------------------
-------------(7)-------------(7)--
--2000000000-----2000000000-------
Riff 11x4
-----------------------------------------------------------------
-----------------------------------------------------------------
-----------------------------------------------------------------
---------------3-----------------------3--------6-6-6-6-6-6-6-6--
--------3-5-6-----6-5-----------3-5-6-----6-5---4-4-4-4-4-4-4-4--
--3--6--------------------3--6-----------------------------------
Riff 12x6?

----------------------------------------------------
----------------------------------------------------
----------------8-------------------------8---------
--------7-9-10-----10-9-----------7-9-10-----10-----
--0--8----------------------0--8--------------------
----------------------------------------------------
  pm..                      pm..
Riff 13x4
-------------------------------------------------
-------------------------------------------------
-------------------------------------------------
---------------------------------6-6-6-6-6-6-6---
---------------------------------4-4-4-4-4-4-4---
--200000002-3232--200000002-3232-----------------
pm..............................
  
  
 
7. Entrance
  
Riff 1:
|------------------------------------------------------|
|------------------------------------------------------|
|------------------------------------------------------|
|---------------------7-7777--10-10101010--10-10101010-|
|-7-7777--7-7777-7-7--5-5555--8--8-8-8-8---8--8-8-8-8--|
|-5-5555--5-5555-5-5-----------------------------------|
    ....    ....   .    ....     . . . .      . . . .


Riff 2:
|-------------|
|-------------|
|-------------|
|-----7---10--|
|-7---5---8---|
|-5-----------|
  l   l   l


...keyboard section...


Riff 3:
|------------|
|------------|
|------------|
|-5-----9----|
|-3-----7----|
|------------|
  l     l


Fill 1:
|------------------|
|------------------|
|------------------|
|--9---5---9--7----|
|--7---3---7--5----|
|------------------|


Riff 4:
|-----------------------------------------------------|
|-----------------------------------------------------|
|-----------------------------------------------------|
|-----------------------------------------------------|
|-777777777777-333333333-777-555555555555555555555555-|
|-----------------------------------------------------|
  ............ ......... ... ........................


Riff 5:
|------------------------|
|------------------------|
|------------------------|
|----5--9--7---7-9-10----|
|-7--3--7--5---5-7-8-----|
|-5----------------------|
  l            . . .


Riff 6:                                          Fill 2:
|----------------------------------------------| |-------------|
|----------------------------------------------| |-------------|
|----------------------------------------------| |-------------|
|----------------5-55-5-55-5--9-7-77-7-77-7-7--| |-7-9-10------|
|-7-77-7-77-7-7--3-33-3-33-3--7-5-55-5-55-5-5--| |-5-7-8-------|
|-5-55-5-55-5-5--------------------------------| |-------------|
    ..   ..   .    ..   ..        ..   ..   .


GUITAR 2:
|---------------------|
|---------------------|
|---------------------|
|---------------------|
|------8-7-5-7-5------|
|-5-------------------|
  l            l


  
 
8. Master of disharmony

Riff 1xa lot (when the vocals come In ,only hit these chords once)
--------------------------------------
--------------------------------------
--------------------------------------
--------------------------------------
---10--------------4------------------
---8-..........----2..............----

Riff 2(kinda a main riff)
----------------------------------------------------------------------
----------------------------------------------------------------------
------------------7..--10..--9..--------------------------------------
-------9..--10..------------------------9..--10..--7..----------------
--7..------------------------------7..------------------10..--9..-----
----------------------------------------------------------------------

Riff 3(goes with chanting)
----------------------------------------------------------------
----------------------------------------------------------------
----------------------------------------------------------------
----------------------------------------------------------------
----7-----7-----10--6-----6-------7-----7-----10--6------5------
----5-555-5-55--8---4-444-4-444---5-555-5-55--8---4-444--3-333--
      pm.   pm        pm.   pm.     pm.   pm        pm.    pm.

Riff 4
-------------------------------------------
-------------------------------------------
-------------------------------------------
--------7---------7---------6---------6----
-----7---------7---------6---------6-------
--5---------5---------4---------4----------
  pm..      pm..      pm..      pm..

Riff 5 (similar to Riff 2)
--------------------------------------------------------------
--------------------------------------------------------------
--------------------------------------------------------------
------------------3..--5..--6..-------------------------------
--------5..--6..----------------------5..--6..--3..-----------
---3..---------------------------3..-----------------5..--6..-

Fill ( right before riff 6 )

--------------
--------------
--------------
---/5--3--2---
--------------
--------------

Riff 6  (It sounds right to me)
-----------------------------------------------------------------------
-----------------------------------------------------------------------
-----------------------------------------------------------------------
--9------9-------9------9-----/5--3----7------7-----7-----7----/5--3---
--7------7-------7------7--------------5------5-----5-----5------------
-----0-0----0-0-----0-0----0--------------0-0---0-0---0-0---0----------

Riff 7 (This Is a rythim guitar riff that plays over riff 2 and It's what the song ends with)
----------------------------------
----------------------------------
----------------------------------
----------7--7-7------------------
--2--2-2--5--5-5--2--2-2---7-6-5--
--0--0-0----------0--0-0---5-4-3--




 
9. Prudence's fall
(dont know)




10. A succubus in rapture

Riff A (Is played under solo 4 times)
-------------------------
-----------------------6-
-----5-----2-------------
---7-----2-------5---7---
-0-----5-------7---5-----
-------------8-----------

Riff B (is played after Riff A until end of
solo then the song fades away with Riff A)
---------0-------------
-6-6-5-3---3-------0---
-------------5-4-2---2-
-----------------------
-----------------------
-----------------------

Solo
-------------------------------------------
-------------------15-13-------------------
-14-14-16-17-16-17-------16H17P16-14-16\12-
-------------------------------------------
-------------------------------------------
-------------------------------------------

-------------------------------------------
-------------------------------------------
-14/16-14----------------------------12-14-
----------14-12-14-15-14-12-14-12-14-------
-------------------------------------------
-------------------------------------------

-------------------------------------------
-12H13P12----12-13-12H13P12----12-13-12----
----------14----------------14-------------
----------------------------------------14-
-------------------------------------------
-------------------------------------------

-------------------------------------------
-----12H13P12----12/13-12\10-12P10----10---
-12--------------------------------12----12
--------------14---------------------------
-------------------------------------------
-------------------------------------------

------------------------------------------=
-------------------------------------------
-/14----14---------------------------------
-----15----14-15-12-14----12----------7----
-----------------------15----14-15-12---10-
-------------------------------------------
                                         . .
--------------------------------------------
--------------------------------------------
--------------------------------------------
--------------------------7-----------------
-8-7----------------7-8-7---7--------0------
-----10-8-7H8-10-10-----------10-8-7---8-5H8






 . . . .
-------------------------5-7-8-7H8P7P5-5H7P5
-------------------5-8-8--------------------
-------------4-5-7--------------------------
-----5H7-5-7--------------------------------
-5H7----------------------------------------
--------------------------------------------

-\3-5---5-7-8-7-5-5H7P5\3-5-----------------
------5----------------------------------8H-
----------------------------------9H10P9----
----------------------------7H9P7-----------
--------------------------------------------
--------------------------------------------

------7H8p7-----------------7----7-8-7H8P7--
-10P8-------10-8-------8-10---10------------
-----------------9-9-9----------------------
--------------------------------------------
--------------------------------------------
--------------------------------------------

----7---12H13P12P10-12----(12)P10-----------
-10---8----------------13--------12-13------
---------------------------------------12-12
--------------------------------------------
--------------------------------------------
--------------------------------------------

--------------------------------------------
--------------------------------------------
-/14----------------------------------------
--------------------------------------------
--------------------------------------------
--------------------------------------------
End of solo and Riff B





11. Raabjørn speiler draugheimens skodde
 
like this an so forth.
|-------------------------------|
|-------------------------------|
|-------0-------0------0------0-|
|-----4-------4------4------4---|
|---2-------2------2------2-----|
|-2------2-------0------0-------|

Riff 1

|--------------|
|--------------|
|--------4-----|
|-2------4-----|
|-2------2-----|
|-0------------|

Riff 2

|-------------------------------------------|
|-------------------------------------------|
|-------------------------------------------|
|-4--4-4-7------------4--4-4-7--------------|
|-2--2-2-5--5--5-5-5--2--2-2-5--5-5-5-4-4-4-|
|-----------3--3-3-3------------3-3-3-2-2-2-|

Riff 3

|------------------------------------------|
|------------------------------------------|
|2-2-----10-10-10-9---2-2--10-9--7--9------|
|2-2-----10-10-10-9---2-2--10-9--7--9------|
|0-0--/--8--8--8--7---0-0--8--7--5--7------|
|------------------------------------------|


Riff 4

|------------------------------------------------------------------|
|------------------------------------------------------------------|
|------------------------------------------------------------------|
|-2------3------2-------5-7-9------10------9--------10------12-----|
|-0-0000-0-0000-0-0000--3-5-7-7777----7777---7777-8----8-10----10--|
|------------------------------------------------------------------|


|-----------------------------------------------------------|
|-----------------------------------------------------------|
|-----------------------------------------------------------|
|-2------3------2-------5-7-9------10------9--------10------|
|-0-0000-0-0000-0-0000--3-5-7-7777----7777---7777-8----8----|
|-----------------------------------------------------------|


Riff 5

|----------------------------------------------------|
|----------------------------------------------------|
|----------------------------------------------------|
|-2222222222222222------------------5555555555555555-|
|-0000000000000000-2222222222222222-3333333333333333-|
|------------------0000000000000000------------------|

1st ending              2nd ending

|-------------------|--------------------|
|-------------------|--------------------|
|-------------------|--------------------|
|-5555555555555555--|--------------------|
|-2222222222222222--|--5555555555555555--|
|-------------------|--3333333333333333--|

Riff 6 is played while shagrath "sings"
Same as above but slower

riff 7

|------------------------|
|------------------------|
|-2---7-10--2---10-7-9-9-|
|-2---7-10--2---10-7-9-9-|
|-0---5--8--0----8-5-7-7-|
|------------------------|

SONGSTRUCTURE
INTRO
RIFF 1
RIFF 2
RIFF 3
RIFF 4
RIFF 5
RIFF 6
RIFF 4
RIFF 5
RIFF 6
RIFF 7 (PLAY RIFF 7 ONE TIME AND THEN INCLUDE IT WITH THE INTRO RIFF)
comments
We did not receive enough feedback on this tab! Please rate:
print report bad tab
1 2 3 4 5
2 comments total.
0 reply
llama_guitarist wrote on November 13 2008, 11:57 pm

Um...tuning? Or did I miss that somewhere?

0 reply
leftyace wrote on January 30 2010, 12:58 pm

I believe this album was all in Standard.

I want to post or [tab]
guest
You may want to rate the tab now too:
select rating
Please do not post tabs as comments. Select "correction" instead!