Oops, an error
Loading. Please wait.

Godless Savage Garden Tab

1,406 views 1 this week
no commentswrite comment
1 2 3 4 5
please rate
add to favorites launch autoscroll
font size
0
reset
Autoscroll
+/-
esc
set tempo
stop
Contributor
WARNING: You are trying to view
                                    content from Ultimate-Guitar.com
                                    in an unauthorized application,
                                    which is prohibited.

                                    Please use an official Ultimate
                                    Guitar Tabs application for iPhone,
                                    iPad or Android to access legitimate
                                    chords, guitar, bass, and drum tabs
                                    from Ultimate-Guitar.com database.

                                    Type "ultimate guitar tabs" in Apple
                                    App Store's or Android Market's
                                    search to find the application.
1. Moonchild Domain

RIFF A
|--------------------------------------|
|--------------------------------------|
|--------------------------------------| REPEAT 8x
|-2-------------3\4----------------3\4-|
|-0--5--4--4\5--1\2--6--5--4--4\5--1\2-|
|----3--2--2\3-------4--3--2--2\3------|



RIFF B
|----------------------------|
|----------------------------|
|----------2-3-5-5-3-2-------| PLAY ONCE
|-2--2-3-5-------------5-3-2-|
|-0--------------------------|
|----------------------------|


RIFF C                                                        REPEAT 4x
|----------------------------------------------------------------------|
|----------------------------------------------------------------------|
|--------------------------------------------------5-3-2---------------|
|--------------------------------------------------------5-3-2---2-3-5-|
|-33333333--------33333333--------33333333---------------------5-------|
|---------33333333--------22222222--------33333333---------------------|

RIFF D
|-------------------|
|-------------------|
|-2-3-5-5-3-2-------| PLAY ONCE
|-------------5-3-2-|
|-------------------|
|-------------------|

RIFF E
|---------|            |---------|            |---------|
|---------|            |---------|            |---------|
|---------| REPEAT 4x  |---------| REPEAT 4x  |---------| REPEAT 4x
|---------|            |---------|            |---------|
|-3-3-3-4-|            |-2-2-2-3-|            |-3-3-3-4-|
|-1-1-1-2-|            |-0-0-0-1-|            |-1-1-1-2-|






|---------|           |---------------|
|---------| REPEAT 2x |---------------| PLAY ONCE
|---------|           |-2-3-5-5-3-2---|
|-6-6-6-7-|           |-------------5-|
|-4-4-4-5-|           |---------------|


PLAY RIFF E AGAIN

NOW PLAY RIFF C 4x EXCEPT DO NOT PLAY THE THREE NOTES (-2-3-5-) ON LAST REPEAT

PLAY RIFF A 4x


RIFF F
|------------------------|
|------------------------|
|----5-3-2---------------| PLAY ONCE
|-2--------5-3-2---2-3-5-|
|-0--------------5-------|
|------------------------|


PLAY RIFF E 2x

RIFF G 2x
(NOTE: THIS RIFF IS VERY SIMILAR TO RIFF E, BUT I AM NOT SURE HOW DIMMU BORGIR
PLAYS IT TO GET THE SOUND THAT I HEAR IN THE SONG. IT IS PROBABLY INCORRECT IN
TERMS OF HOW THE NOTES ARE PLAYED, BUT ACCURATE IN TERMS OF WHERE THE NOTES ARE
PLAYED ON THE STRINGS.)

|---------|            |---------|            |---------|
|---------|            |---------|            |---------|
|---------| REPEAT 4x  |---------| REPEAT 4x  |---------| REPEAT 4x
|---------|            |---------|            |---------|
|---------|            |---------|            |---------|
|-1-1-1-2-|            |-0-0-0-1-|            |-1-1-1-2-|


|---------|           |---------------|
|---------| REPEAT 2x |---------------| PLAY ONCE
|---------|           |-2-3-5-5-3-2---|
|---------|           |-------------5-|
|-4-4-4-5-|           |---------------|


SOLO-PART 1: (**=whammy-bar effect)
(NOTE: PLAY SOLO-PART 1 WITH RIFF E)
|---------------------------------------------------------------|
|---------------------------------------------------------------|
|--------10--------10-11-9-8---------------8-9-11--------10-8-7-|
|-7-8-10----7-8-10-----------11-9-8-8-9-11--------7-8-10--------|
|---------------------------------------------------------------|
|---------------------------------------------------------------|




|----------------------------------------------------------------------|
|----------------------------------------------------------------------|
|--------7-8-10-9-7-6-------------6-7-9--------10-9--------------------|
|-7-8-10--------------9-7-6-6-7-9-------7-9-10------9-10-7-9-10-12-11**|
|----------------------------------------------------------------------|
|----------------------------------------------------------------------|


|-------------------------------------------------------|
|----------15-13-12----15-13-12----------15-13-12----15-|
|-12-13-15----------12----------12-13-15----------12----|
|-------------------------------------------------------|
|-------------------------------------------------------|
|-------------------------------------------------------|

|-------------------------------------------------|
|----------14-12-11----14----------14-12-11----14-|
|-11-12-14----------11----11-12-14----------11----|
|-------------------------------------------------|
|-------------------------------------------------|
|-------------------------------------------------|

|------------------------------------------------------------------|
|---------15-13-12--------15-13-12--------15-13-12--------15-13-12-|
|-12-13-15--------12-13-15--------12-13-15--------12-13-15---------|
|------------------------------------------------------------------|
|------------------------------------------------------------------|
|------------------------------------------------------------------|

|-----------------------------------------------|
|-----------------------------------------------|
|---------12-10-9---------12-10-9-12-10-9-------|
|-9-10-12---------9-10-12-----------------12-11-|
|-----------------------------------------------|
|-----------------------------------------------|

SOLO-PART 2:
(NOTE: PLAY SOLO-PART 2 WITH RIFF G. I CANNOT FIGURE OUT THE SECOND HALF OF THE SOLO,
ONLY BITS AND PIECES, SO I LEFT SOME LINES YOU COULD WRITE IN IF YOU CAN FIGURE IT
OUT. GOOD LUCK.)

|------------------------------------------------------------------|
|------------------------------------------------------------------|
|------------------------------------------------------------------|
|------------------------------------------------------------------|
|------------------------------------------------------------------|
|------------------------------------------------------------------|

|------------------------------------------------------------------|
|------------------------------------------------------------------|
|------------------------------------------------------------------|
|------------------------------------------------------------------|
|------------------------------------------------------------------|
|------------------------------------------------------------------|



RIFF H
|------------------------------------------------|
|------------------------------------------------|
|------------------------------------------------| REPEAT 4x
|-33333333---------3-2-3--44444444---------4-3-4-|
|---------33333333----------------44444444-------|
|------------------------------------------------|

ON THE FOURTH REPEAT OF RIFF H PLAY:

|------------------------------------------------|
|------------------------------------------------|
|------------------------5-3-2-------------5-3-2-|
|-33333333---------3-2-3-------5-3-2-2-3-5-------|
|---------33333333-------------------------------|
|------------------------------------------------|

REPEAT RIFF H THREE MORE TIMES.


RIFF I
|--------|
|--------|
|--------|
|-3--2-2-|
|-1--0-0-|
|--------|




2. Hunnerkongens sorgsvarte ferd over steppene

RIFF A
|-----------------------------------|
|-----------------------------------|
|-----------------------------------| REPEAT 6x
|-2----5----7----10/-9\10-----------|
|-0000-3333-5555-8-/-7\8------------|
|-----------------------------------|

RIFF B
|--------------------------------------|
|--------------------------------------|
|--------------------------------------|
|--------------------------------------|
|-22222222222222-00-33333333-0000------|
|---------------------------------2222-|

RIFF B1
|--------------------------------------|
|--------------------------------------|
|--------------------------------------|
|----------------------------6666-4444-|
|-22222222222222-00-33333333-----------|
|--------------------------------------|

PLAY RIFF B then B1 twice

PLAY RIFF A 4x

PLAY RIFF B then b1 2x

RIFF C
|-----------------------------------------|
|-----------------------------------------|
|-----------------------------------------|
|-9----9----9----9----7----7----7----7----|
|-7-77-7-77-7-77-7-77-5-55-5-55-5-55-5-55-|
|-----------------------------------------|

RIFF D
|------------------------------------|
|------------------------------------|
|------------------------------------| REPEAT 4x
|-9----9----9----9----7----7-----7-9-|
|-7-77-7-77-7-77-7-77-5-55-5-55--5-7-|
|------------------------------------|

RIFF E
|-----------------------------------------|
|-----------------------------------------|
|-----------------------------6-4-3-------| REPEAT 4x
|-22222222-1111-2222-44444444-------6-4-3-|
|-----------------------------------------|
|-----------------------------------------|
     8x                 8x



RIFF F
|-----------|
|-----------|
|-----------| REPEAT 4x
|-2-4-2-4-5-|
|-0-2-0-2-3-|
|-----------|


PLAY RIFF E 8x


RIFF G
|-------|
|-------|
|-------|
|-2--22-|
|-0--00-|
|-------|




3. Chaos without prophecy

Tuning: standard

Marking:
Palm mute:  .......
Let ring: l
Mute: m

                               On the last time play this
Riff 1:         Fill 1:        Fill 2:
|--------------|--------------|-----|
|--------------|--------------|-----|
|--------------|--------------|-----|
|--9--9--9--9--|--5--5--5--5--|--5--|
|--7--7--7--7--|--3--3--3--3--|--3--|
|--------------|--------------|-----|
   m  m  m  m     m  m  m  m     l


Riff 2:
|--------------------------------------|
|--------------------------------------|
|--------------------------------------|
|--9---5555555555555555----9---5---55--|
|--7---3333333333333333----7---3---33--|
|--------------------------------------|
   l                       l   l   ..


Riff 3:
|---------------------------------------------|
|---------------------------------------------|
|---------------------------------------------|
|--9-99-9-99-9-99-9-99---5-55-5-55-5-55-5-55--|
|--7-77-7-77-7-77-7-77---3-33-3-33-3-33-3-33--|
|---------------------------------------------|
     ..   ..   ..   ..     ..   ..   ..   ..


Riff 4:
|---------------|
|---------------|
|---------------|
|--10--9--5-----|
|--8---7--3-----|
|---------------|
   l   l  l


Riff 5 (Guitar 1):
|----------------------------------------|
|----------------------------------------|
|----------------------------------------|
|--1010101010101010--99999999--55555555--|
|--8-8-8-8-8-8-8-8---77777777--33333333--|
|----------------------------------------|
   . . . . . . . .   ........  ........


(Guitar 2):
|-------------------------------------------------------------|
|-------------------------------------------------------------|
|-------------------------------------------------------------|
|-----6-5-6-5---6-5-6-5---6-5-6-5--6-5-6-5-6-5-6-5-6-5-6-5-6--|
|--8----------7---------3-------------------------------------|
|-------------------------------------------------------------|


Fill 3:
|-------------------|
|-------------------|
|-------------------|
|--9----------------|
|--7----------------|
|-------------------|
   l


Riff 6:
|----------------------------------------------------------|
|----------------------------------------------------------|
|----------------------------------------------------------|
|--9-9-8--8-8-8--9-9-8--8-8-8--5-5-4--4-4-4--5-5-4--4-4-4--|
|--7-7-7--7-7-7--7-7-7--7-7-7--3-3-3--3-3-3--3-3-3--3-3-3--|
|----------------------------------------------------------|


Riff 7:
|-----------------------------|
|-----------------------------|
|-----------------------------|
|--10-1010--9-99--5-55--5-55--|
|--8--8-8---7-77--3-33--3-33--|
|-----------------------------|
      . .     ..    ..    ..

Riff 8 (guitar 1):
|--------------------------------------------------------|
|--------------------------------------------------------|
|--------------------------------------------------------|
|--101010101010101010101010--999999999999--555555555555--|
|--8-8-8-8-8-8-8-8-8-8-8-8---777777777777--333333333333--|
|--------------------------------------------------------|


Guitar 2:
|-------------------------------------------------
|-------------------------------------------------
|-1010101010101010-999999999999-------------------
|-------------------------------1010101010101010--
|-------------------------------------------------
|-------------------------------------------------


        -------------------------------------------------------|
        -------------------------------------------------------|
        -1010101010101010-1212121212121212---------------------|
        -----------------------------------101010101010101010--|
        -------------------------------------------------------|
        -------------------------------------------------------|



4. Raabjorn speiler draugheimens skodde

Intro Clean with harp plucking underneath.  Only play the first low E once.
e------------------------------------------------------|
B------------------------------------------------------|
G*-------0-----0-----0-----0-----0-----0-----0------0-*|
D*-----9-----9-----9-----9---4-----4-----4-----4------*|
A----7-----7-----7-----7-------5-----5-----5-----5-----|
E--0---------------------------------------------------|

Riff 2 Distortion, Guitar two plays this while guitar one plays the intro with distortion.
e-------------|
B-------------|
G*-------(4)-*|
D*-(2)---(4)-*|
A--(2)---(2)--|
E--(0)--------|

Riff 3
e-----------------------------------------|
B-----------------------------------------|
G*-4--4-4-------------4--4-4-------------*|
D*-4--4-4-0-5--5-5----4--4-4-0-5-5---4-4-*|
A--2--2-2---5--5-5-0--2--2-2---5-5-4-4-4--|
E-----------3--3-3-------------3-3---2-2--|

Riff 4
e---------------------------------|
B---------------------------------|
G*-2---/10--10-9--2---/10-9-7--9-*|
D*-2---/10--10-9--2---/10-9-7--9-*|
A--0---/8---8--7--0---/8--7-5--7--|
E---------------------------------|

Riff 5    Verse                                     [1]          [2]
e-----------------------------------------------------|------------|
B-----------------------------------------------------|------------|
G*-2-------------------------------------------------*|-----------*|
D*-2-----3-----2-----5--7--9-----10-----9-------10---*|-----12----*|
A--0-000---000---000-3--5--7-777----777---777-8----8--|--10----10--|
E-----------------------------------------------------|------------|
     ***   ***   ***         ***    ***   ***

Riff 6
e-------------------------------------------------------------------|
B-------------------------------------------------------------------|
G*-2-2-2-2---------5-5-5-5-4-4-4-4-2-2-2-2---------5-5-5-5---------*|
D*-2-2-2-2-2-2-2-2-5-5-5-5-5-5-5-5-2-2-2-2-2-2-2-2-5-5-5-5-5-5-5-5-*|
A--0-0-0-0-2-2-2-2-3-3-3-3-2-2-2-2-0-0-0-0-2-2-2-2-3-3-3-3-5-5-5-5--|
E----------0-0-0-0-------------------------0-0-0-0---------3-3-3-3--|

Riff 6 Alternate
e---------------------------------------------------------------|
B---------------------------------------------------------------|
G*-2-2-2---------5-5-5-5-4-4-4-4-2-2-2---------5-5-5-5---------*|
D*-2-2-2-2-2-2-2-5-5-5-5-5-5-5-5-2-2-2-2-2-2-2-5-5-5-5-5-5-5-5-*|
A--0-0-0-2-2-2-2-3-3-3-3-2-2-2-2-0-0-0-2-2-2-2-3-3-3-3-5-5-5-5--|
E--------0-0-0-0-----------------------0-0-0-0---------3-3-3-3--|
     *     * *     * *     * *     *     * *     * *     * *

Riff 5

Riff 6

Riff 6 Alternate

Riff 7 Repeat until end. Guitar 2 plays intro clean underneath after 2 measures.
e---------------------------------------|
B---------------------------------------|
G*------2--5---------------5--2------0-*|
D*--2---2--5-(Guitar1)-2---5--2----4---*|
A---2---0--3--3-2-0-2--2---3--0--2------|
E---0------------------0----------------|




5. Metal Heart

Tuning: E A D G B E

Intro 2x.
|-------------------------------------------------------------------|
|-------------------------------------------------------------------|
|*--4~-3-------------4-4-3-3h4p3-------------2----------------------|
|*-------5-4-2~--4-5--------------5-4-2~---4---5-4--2-1-2-4-5-2-----|
|-------------------------------------------------------------------|
|-------------------------------------------------------------------|

|-------------------------------------------------------------------|
|-------------------------------------------------------------------|
|-4-4-4-3----------------------------------------------------------*|
|---------5-2-4~---------------------------------------------------*|
|-------------------------------------------------------------------|
|-------------------------------------------------------------------|

Riff 1. 2x
|-------------------------------------------------------------------|
|-------------------------------------------------------------------|
|-------------------------------------------------------------------|
|--5-5-5-5-5-5--5-5-5-5-5-6--6-6-6-6-6-6--6-6-6--6-6----------------|
|--3-3-3-3-3-3--3-3-3-3-3-3--3-3-3-3-3-3--3-3-3--3-3----------------|
|-------------------------------------------------------------------|

|-------------------------------------------------------------------|
|-------------------------------------------------------------------|
|-------------------------------------------------------------------|
|-5--5-5-5-5-5-5--5-5-5-5-5-5--5-5---6~---5-------------------------|
|-3--3-3-3-3-3-3--3-3-3-3-3-3--3-3---3~---3-------------------------|
|-------------------------------------------------------------------|

Verse 1.
|-------------------------------------------------------------------|
|-------------------------------------------------------------------|
|-------------------------------------------------------------------|
|--5-5-5-5-5-5--5-5-5-5-5-6--6-6-6-6-6-6--6-6-6--6-6----------------|
|--3-3-3-3-3-3--3-3-3-3-3-3--3-3-3-3-3-3--3-3-3--3-3----------------|
|-------------------------------------------------------------------|

|-------------------------------------------------------------------|
|-------------------------------------------------------------------|
|-------------------------------------------------------------------|
|-5--5-5-5-5-5-5--5-5-5-5-5-5---------------------------------------|
|-3--3-3-3-3-3-3--3-3-3-3-3-3--5-6~---5-----------------------------|
|------------------------------3-4~---3-----------------------------|

|-------------------------------------------------------------------|
|-------------------------------------------------------------------|
|-------------------------------------------------------------------|
|-5--5-5-5-5-5-5--6-6-6-6-6---5-----8-------------------------------|
|-3--3-3-3-3-3-3--3-3-3-3-3---3-6---6-8-----------------------------|
|-------------------------------4-----6-----------------------------|


|-------------------------------------------------------------------|
|-------------------------------------------------------------------|
|-------------------------------------------------------------------|
|-5--5-5-5-5-5-5--6-6-6-6-6---5-------------------------------------|
|-3--3-3-3-3-3-3--3-3-3-3-3---3-6~---5------------------------------|
|-------------------------------4~---3------------------------------|

Chorus 2x

|-------------------------------------------------------------------|
|-------------------------------------------------------------------|
|---5-4-5------------5-4-5------------9-7-10-9--7-------------------|
|---7-5-7------------7-5-7-----------10-9-12-10-9-------------------|
|-------------------------------------------------------5-----------|
|----------0-0-0-0-0--------0-0-0-0-0-------------------3-----------|
           . . . . .        . . . . .

Verse 2.

Repeat riff 1. 1x

|-------------------------------------------------------------------|
|-------------------------------------------------------------------|
|-------------------------------------------------------------------|
|-5--5-5-5-5-5-5--6-6-6-6-6---5-----8-------------------------------|
|-3--3-3-3-3-3-3--3-3-3-3-3---3-6---6-8-----------------------------|
|-------------------------------4-----6-----------------------------|

|-------------------------------------------------------------------|
|-------------------------------------------------------------------|
|-------------------------------------------------------------------|
|-5--5-5-5-5-5-5--6-6-6-6-6---5-------------------------------------|
|-3--3-3-3-3-3-3--3-3-3-3-3---3-6~---5------------------------------|
|-------------------------------4~---3------------------------------|

Chorus 2x

Solo:

|-------------------------------------------------------------------|
|-------------------------------------------------------------------|
|-------------------------------------------------------------------|
|------------------7---9--10----------------------------------------|
|-7-7-----7-9-10----------------------------------------------------|
|-------------------------------------------------------------------|

|-------------------------------------------------------------------|
|-------------------------------------------------------------------|
|-8-9-11-11-9-8-9-9-9-9-9-9-9-9-9-9-9-9-9-9-9-9-9-9-9-9-------------|
|-------------------------------------------------------------------|
|-------------------------------------------------------------------|
|-------------------------------------------------------------------|

|-------------------------------------------------------------------|
|-----------------------------------8-10-10b--10-8-7-8--------------|
|-8h9------8h9-----8h9-----8-9--------------------------------------|
|------10------10------10-------------------------------------------|
|-------------------------------------------------------------------|
|-------------------------------------------------------------------|


|----7h8----7h8-----7h8------7-8-10--8-7-8-7---------7--------------|
|--------10-----10-------10-----------------------10---10-8-10-7-8-7|
|-9-----------------------------------------------------------------|
|-------------------------------------------------------------------|
|-------------------------------------------------------------------|
|-------------------------------------------------------------------|

|-------------------------------------------------------------------|
|--------------15br~~~----------------------------------------------|
|-9----12br-------------12-12-10-12----10---------------------------|
|-----------------------------------12-----13---10~--------10-------|
|----------------------------------------------------10-------------|
|-------------------------------------------------------------------|

|-------------------------------------------------------------------|
|-------------------------------------------------------------------|
|----------------------------------------12-10-12-----10------------|
|-12--12br--10------------------------------------12-----13-10~-----|
|---------------------------------10/----------------------------10-|
|-------------------------------------------------------------------|

|-------------------------------------------------------------------|
|-------------------------------------------------------------------|
|---------------------------------------10b--10b--12b---10---10br---|
|-------12br~-----------------10-12-13------------------------------|
|-------------------------------------------------------------------|
|-------------------------------------------------------------------|

|-------------------------------------------------------------------|
|-------------------------------------------------------------------|
|-8h10p8h10p8h10p8h10p8h10p8h10p8h10p8h10-p-8/7h8p7/5h7p5/4h5p4-----|
|----------------------------------------------------------------7--|
|-------------------------------------------------------------------|
|-------------------------------------------------------------------|

|-----------------------------12----------------------12------------|
|--------------------------------13----------12-13-15----13---------|
|-4h5p4---5p4---4h5p4---------------14----14----------------14------|
|-------------7-------7-5~-------------14----------------------14---|
|-------------------------------------------------------------------|
|-------------------------------------------------------------------|


|-------------13----------------------13--------------------13------|
|----12-13-15----15----------------15----15---------------15--------|
|-14---------------16----16----16----------16----16----16-----------|
|---------------------15----15----------------15----15--------------|
|-------------------------------------------------------------------|
|-------------------------------------------------------------------|

|-12----------------------12---------------10-----------------------|
|----13----------12-13-15----13---------12----12----------10-12-13--|
|-------14----14----------------14---14----------12----12-----------|
|----------14---------------------14----------------12--------------|
|-------------------------------------------------------------------|
|-------------------------------------------------------------------|

|-10-13----------10-12----------10-13----------10-12----------------|
|--------10-12----------12-13-----------10-12----------10-13--------|
|-------------------------------------------------------------------|
|-------------------------------------------------------------------|
|-------------------------------------------------------------------|
|-------------------------------------------------------------------|

Speed this up and listen to the timing, start machine gunning after a
while, then ->


|-------------------------------------------------------------------|
|-13p12p10-13p12p10-13p12p10-13p12p10-15p13p12-15p13p12-17p15p13----|
|-------------------------------------------------------------------|
|-------------------------------------------------------------------|
|-------------------------------------------------------------------|
|-------------------------------------------------------------------|

|-------------------------------------------------------------------|
|-17p15p13-18p17p15-18p17-20-18-16----------------------------------|
|----------------------------------19-17-16-------------------------|
|-------------------------------------------18-17-15----------------|
|----------------------------------------------------18-17-15-14----|
|----------------------------------------------------------------17-|

|-------------------------------------------------------------------|
|-------------------------------------------------------------------|
|-------------------------------------------------------------------|
|---------------------------16-17-19-17-----------------------------|
|---------------14-15-17-18-----------------------------------------|
|-15-14---15-17-----------------------------------------------------|

|---------12-15-12---------------12-15-12---------------------------|
|------13---------13----------13----------13----------13------------|
|---12---------------12----12----------------12----12---------------|
|-14--------------------13----------------------14------------------|
|-------------------------------------------------------------------|
|-------------------------------------------------------------------|

|-12-15-12----------------12-15-12----------------------------------|
|----------13----------13----------13-------------------------------|
|-------------12----12----------------12----------------------------|
|----------------13-------------------------------------------------|
|-------------------------------------------------------------------|
|-------------------------------------------------------------------|

|-------------------------------------------------------------------|
|-------------------------------------------------------------------|
|-11-12-11-12-11-12-11-12-11-12-11-12-11-12-11-12-11-12-11-12-11-12-|
|-------------------------------------------------------------------|
|-------------------------------------------------------------------|
|-------------------------------------------------------------------|

|-------------------------------------------------------------------|
|-------------------------------------------------------------------|
|-11-12-11-12-11-12-11-12-11-12~--------10--------------------------|
|------------------------------------12----13--10~---10-------------|
|-------------------------------------------------10----------------|
|-------------------------------------------------------------------|

            <- There's some harmonics here but you got to figure that out yourself

|-------------------------------------------------------------------|
|-------------------------------------------------------------------|
|-----------------------------------------10-10b-12b--10------------|
|---------12br--10---------12b-13-----------------------------------|
|-------------------------------------------------------------------|
|-------------------------------------------------------------------|

|-------------------------------------------------------------------|
|-------------------------------------------------------------------|
|-10b-10p8/7h8p7/5h7p5/4h5p4---4h-----------------------------------|
|----------------------------7---7-4h---4h5p4h5p4h5p4h5p4h5p4-------|
|-------------------------------------------------------------------|
|-------------------------------------------------------------------|




|-------------------------------------------------------------------|
|----------------------------------16p15p13h16p15p13h16p15p13h16p13-|
|-8p7h8p7h8p7h8p7h8p7h8p7h8p7h8p7-----------------------------------|
|-------------------------------------------------------------------|
|-------------------------------------------------------------------|
|-------------------------------------------------------------------|

|-----------------15---18--18bf-------------------------------------|
|-16p15p13---18-----------------------------------------------------|
|-------------------------------------------------------------------|
|-------------------------------------------------------------------|
|-------------------------------------------------------------------|
|-------------------------------------------------------------------|

Chorus 4x and then you rest on the G5 power chord    A|--5----|
                                                     E|--3----|

While guitar 1 goes like this:

|------------------------------------------------------------------|
|------------------------------------------------------------------|
|---12-11-12-11-12-11-12-11-12-11bfr-------------------------------|
|------------------------------------------------------------------|
|------------------------------------------------------------------|
|------------------------------------------------------------------|

Ending goes like this

|------------------------------------------------------------------|
|------------------------------------------------------------------|
|------------------------------------------------------------------|
|------------------------------------------------------------------|
|-------7--5--7\---------------------------------------------------|
|-------5--5--5\---------------------------------------------------|
comments
We did not receive enough feedback on this tab! Please rate:
1 2 3 4 5
I want to post or [tab]
guest
You may want to rate the tab now too:
select rating
Please do not post tabs as comments. Select "correction" instead!