Oops, an error
Loading. Please wait.

Puritanical Euphoric Misanthropia Tab

4,652 views 6 this week
2 commentsread comments
1 2 3 4 5
excellent!
x 3
Autoscroll
+/-
esc
set tempo
stop
Contributor
Hey! There's an official Ultimate Guitar app which is ideal
for learning songs when you're away from computer. Get the app
WARNING: You are trying to view
                                    content from Ultimate-Guitar.com
                                    in an unauthorized application,
                                    which is prohibited.

                                    Please use an official Ultimate
                                    Guitar Tabs application for iPhone,
                                    iPad or Android to access legitimate
                                    chords, guitar, bass, and drum tabs
                                    from Ultimate-Guitar.com database.

                                    Type "ultimate guitar tabs" in Apple
                                    App Store's or Android Market's
                                    search to find the application.
Key____________

.  - palm mute           /  - slide up to
\  - slide down to       ~  - vibrato
h  - hammer on           b  - Bend
p  - pull off            Suffixes for bend
t  - tap                 f  - full bend    h - half bend
ph - pinched harmonic    q  - quarter bend t - tap bend
*  - see comment         ^  - Hold bend    r release bend
x  - Stuccatto           ~  - vibrato bend
,  - slight palm mute    () - ghost note, sustained note
"  - tremolo note        <> - Trill

========================================
1. Intro
(dont know)


2. Blessings upon The Throne of Tyranny

Riff 1
|--------------------------------------------------------------------|
|--------------------------------------------------------------------|
|--2-2-2-2-----------------2-2-2-2-2-2-2-2-2-2-2-2-2-2-2-2-----------I
|--------------------------------------------------------------------|
|------------------4-4-4-4-------------------------------------------|
|----------2-2-2-2-------------------------------------------2-2-2-2-|



----------------------------------|
----------------------------------|
----------3-3-3-3-----------------|
------------------5-5-5-5---------|
--4-4-4-4-----------------5-5-5-5-|
----------------------------------|

Riff 2

|-------------------------
|-------------------------
|-------------------------
|---4----------------4----
|--------------4----------
|--------2--2-----2-------
         .  .  .  .


----------------------------------------------------|
----------------------------------------------------|
----------------------------------------------------|
--------------4------------------------------5------|
--------4------------------4-----5-----4------------|
--2--2-----2-------2--2-------2-----2-----2-----3---|
  .  .  .  .       .  .    .  .  .  .  .  .

Riff 3

---------------------------------------------------------
---------------------------------------------------------
---------------------------------------------------------
--4---------------------------------------------5--------
---------------------------------------------------5--4--
-------2-2-2--2-2-2--2-2-2--2-2-2--2-2-2--2-2------------
       . . .  . . .  . . .  . . .  . . .  . .


------------------------------------------------------
------------------------------------------------------
--------------------------------------------------3---
--4-----------------------------------------------5---
------------------------------------------------------
-------2-2-2--2-2-2--2-2-2--2-2-2--2-2-2--2-2-2-------
       . . .  . . .  . . .  . . .  . . .  . . .


--------------------------------------------------------
--------------------------------------------------------
--2-----------------------------------------------------
--4--------------------------------------------5--------
--------------------------------------------------5--4--
-------2-2-2--2-2-2--2-2-2---2-2-2--2-2-2--2-2----------
       . . .  . . .  . . .   . . .  . . .  . .


--------------------------------------------------------I
--------------------------------------------------------|
--2------------2--------------3------------3------------|
--4------------2--------------3------------5------------|
--4-----------------0-0-0-0--------1-1-1-1-5------------|
-------2-2-2-2----------------------------------3-3-3-3-|
       . . . .      . . . .        . . . .      . . . .

 Riff 4


----------------------
----------------------
----------------------
----------------------
---------------1------
--2-------------------



--------------------------------------------I
--------------------------------------------I
--------------------------------------------I
--------------------------------------------I
--2--4----5-----------------5----4--2----1--I
-------------3------------------------------I
Riff 5
--------------------------
--------------------------
--------------------------
--------------------------
--1-----------------1-----
-----2--2--2--2--2-----2--
     .  .  .  .  .     .

-------------------------------------------------I
-------------------------------------------------I
-------------------------------------------------I
-------------------------------------------------I
--2/---4----5-------------------5-----4/---2-----I
---------------3--3--3----3--3-----3-------------I
               .  .  .    .  .     .
Riff 6
----------------------------------------|
----------------------------------------|
----------------------------------------|
--4----------------------5----4----5----|
--4----------------------5----4----5----|
--2----------------------3----2----3----|

Riff 7
--------------------------------------------
--------------------------------------------
--------------------------------------------
--4---------7----7--7----7--7----7--7----7--
--2---------5----5--5----5--5----5--5----5--
--2-----------------------------------------



--------------------------------------------------------------------
--------------------------------------------------------------------
--------------------------------------------------------------------
--3----3--3----3--3----3--3----3----4----4--4----4--5----5--5----5--
--1----1--1----1--1----1--1----1----4----4--4----4--5----5--5----5--
------------------------------------2----2--2----2--3----3--3----3--


Riff 8
--------------------------------------------------------------------
--------------------------------------------------------------------
--4----4--4----4--4----4--4----4------------------------------------
--4----4--4----4--4----4--4----4----7----7--7----7--7----7--7----7--
--2----2--2----2--2----2--2----2----5----5--5----5--5----5--5----5--
------------------------------------5----5--5----5--5----5--5----5--



--------------------------------------------------------------------
--------------------------------------------------------------------
--------------------------------------------------------------------
--3----3--3----3--3----3--3----3----4----4--4----4--5----5--5----5--
--1----1--1----1--1----1--1----1----4----4--4----4--5----5--5----5--
--1----1--1----1--1----1--1----1----2----2--2----2--3----3--3----3--

Riff 9
--------------------------------------------------|
--------------------------------------------------|
--------------------------------------------------|
--4-4-4-4-4-4-4-4-4-4-4-4-4-4-4-4-4-4-4-4-4-4-4-4-|
--2-2-2-2-2-2-2-2-2-2-2-2-2-2-2-2-2-2-2-2-2-2-2-2-|
--------------------------------------------------|



--------------------------------------------------|
--------------------------------------------------|
--------------------------------------------------|
--0-0-0-0-0-0-0-0-0-0-0-0-0-0-0-0-0-0-0-0-0-0-0-0-|
--0-0-0-0-0-0-0-0-0-0-0-0-0-0-0-0-0-0-0-0-0-0-0-0-|
--------------------------------------------------|



--------------------------------------------------|
--------------------------------------------------|
--------------------------------------------------|
--------------------------------------------------|
--1-1-1-1-1-1-1-1-1-1-1-1-1-1-1-1-1-1-1-1-1-1-1-1-|
--1-1-1-1-1-1-1-1-1-1-1-1-1-1-1-1-1-1-1-1-1-1-1-1-|



--------------------------------------------------|
--------------------------------------------------|
--------------------------------------------------|
--------------------------------------------------|
--4-4-4-4-4-4-4-4-4-4-4-4-5-5-5-5-5-5-5-5-5-5-5-5-|
--2-2-2-2-2-2-2-2-2-2-2-2-3-3-3-3-3-3-3-3-3-3-3-3-|

Solo

--------------------------14----------------------|
--------------15----------------------15----------|
--16----------------------------------------------|
------16----------16----------16----------16------|
----------14----------14----------14----------14--|
--------------------------------------------------|



--13----------------------13----------17----------|
--------------15----------------------------------|
------14----------14----------14----------14------|
----------12----------12----------12----------12--|
--------------------------------------------------|
--------------------------------------------------|



--------------------------13----------------------|
--------------14----------------------14----------|
--15----------------------------------------------|
------15----------15----------15----------15------|
----------13----------13----------13----------13--|
--------------------------------------------------|



--------------------------------------------------|
--14----------------------15----------------------|
--------------14----------------------15----------|
--------------------------------------------------|
------16----------16----------17----------17------|
----------14----------14----------15----------15--|
Riff 10
--------------------------------------------|
--------------------------------------------|
--------------------------------------------|
--------------------------------------------|
--2-2-2-2-2-2-2-2-2-2-2-2-2--2--2--2--2--2--|
--0-0-0-0-0-0-0-0-0-0-0-0-0--0--0--0--0--0--|
                             .  .  .  .  .

3. Kings of Carnival Creations

         Gtrs enter  Riff A.1 both Gtr I&II
|-----|-----------|------------------------------------------------------------|
|-----|-----------|------------------------------------------------------------|
|-----|-----6-7-9-|-4-----------------------------7----------------------------|
|SYNTH|-----6-7-9-|-4-----------------------------7----------------------------|
|-----|-555-4-5-7-|-2--2222--2222-2222--2220-2224-5--5555--5555-5555--5554-5557|
|-----|-----4-5-7-|-2-----------------------------5----------------------------|
        ...            ....  .... ....  .... ....    ....  .... ....  ....
....
Repeat Riff A.1 (1 time)

Riff A.2
|---------------------------------------------------------------------|
|---------------------------------------------------------------------|
|-4---------------------------------7---------------------------------|Gtrs
I
|-4---------------------------------7---------------------------------|  &
II
|-2-2222-2222--2222-2222--2220-2224-5-5555-5555--5555-5555--5554-5557-|
|-2---------------------------------5---------------------------------|
    .... ....  .... ....  .... ....   .... ....  .... ....  .... ....
Repeat Riff A.2 (1 time)

Riff B.1
|-----------------------------------------------|
|-----------------------------------------------|
|----4"----6"-------7"\-----4"----6"-------7"\--|Gtr
|-4"----4"----4"-4"------4"----4"----4"-4"------| I
|-----------------------------------------------|
|-----------------------------------------------|
|                                               |
|-----------------------------------------------|
|-----------------------------------------------|
|----4"---------------------4"------------------|Gtr
|-4"----4"-5"-4"-4"-5"\--4"----4"-5"-4"-5"-7"\--| II
|-----------------------------------------------|
|-----------------------------------------------|

Riff B.2
|------------------------------------------------|
|------------------------------------------------|
|----7"----9"-------10"\-----7"----9"-------10"\-|Gtr
|-7"----7"----7"-7"-------7"----7"----7"-7"------| I
|------------------------------------------------|
|------------------------------------------------|
|                                                |
|------------------------------------------------|
|------------------------------------------------|
|----7"----------------------7"------------------|Gtr
|-7"----7"-8"-7"-7"-8"\---7"----7"-8"-7"-5"-4"\--| II
|------------------------------------------------|
|------------------------------------------------|

Repeat Riff B.1 (1 time)
Repeat Riff B.2 (1 time)
Repeat Riff A.2 (2 times)
Repeat Riff B.1 (1 time)
Repeat Riff B.2 (1 time)
Repeat Riff B.1 (1 time)
Repeat Riff B.2 (1 time)

B.3 w/delay and chorus
|---1-----------------h--|
|-------1---0---0----0-1-|
|------------------------|Gtr
|------------------------| I
|------------------------|
|-1----------------------|
|                        |
|---1(1)--------------h--|
|-------1(1)0(0)0(0)-0-1-|   *only guitar II plays w/delay, the notes in the
()
|------------------------|Gtr  are the delayed notes.
|------------------------| II
|------------------------|
|-1----------------------|

Repeat Riff B.3 (2 times)

Fill 2
|---------------|
|---------------|
|-5-------------|Gtrs I
|-3-5-4--4--4/5-|  & II
|-3-3-2--2--2/3-|
|---3-2--2--2/3-|

Riff C.1
|-----------------------|
|-----------------------|
|-----5-5--5--4--4--4/5-|Gtrs I
|-----3-3---------------|  & II
|----------3--2--2--2/3-|
|-1-1-------------------|
  . .
Repeat Riff C.1 (2 times)

Fill 3
|-------------------|
|-------------------|
|-----5-------------|Gtrs I
|-----3-5-4--4--4/5-|  & II
|-----3-3-2--2--2/3-|
|-1-1---3-2--2--2/3-|
  . .
Riff C.2 Gtrs I & II
|-----------------------------------------------------------------------------|
|-----------------------------------------------------------------------------|
|-----------------------------------------------------------------------------|
|------3----------------------------h--------3-----------------------------h--|
|-------------3------2------2------2-3--------------3------2----2----2----2-3-|
|-1111---1111---1111---1111---1111------1111---1111---1111---11---11---11-----|
  ....   ....   ....   ....   ....      ....   ....   ....   ..   ..   ..
Repeat Riff C.2 (1 time)

Riff C.3 Gtr2 plays Riff C.2 (1.5) then play Fill 2
|------------------------------------------------------------------------------|
|------------------------------------------------------------------------------|
|------10---------------------------h---------10---------------------------h---|
|-------------10-----9------9------9-10--------------10-----9----9----9---9-10-|
|-8888---8888---8888---8888---8888-------8888---8888---8888---88---88---88-----|
|------------------------------------------------------------------------------|
  ....    ....    ....   ....   ....       ....    ....    ....   ..   ..
..

Repeat Riff C.3 (1 time)

Riff D.1
|---------------------|
|---------------------|
|-4----7----10---14---|Gtrs I
|-4----7----10---14---|  & II
|-2----5----9----12---|
|-2----5----9----12---|

Repeat Riff D.1 (1 time)

Riff D.2 *Gtr II plays Riff D.1 on top of Riff D.2 and D.3 4x
|-------------------------------------------------------------------------|
|-------------------------------------------------------------------------|
|----4"----6"----7"-----7"----9"----11"-----11"---13"---14"---------------|Gtr
|-4"----4"----4"-----7"----7"----7"------11"---11"---11"---------h-p-----| I
|-----------------------------------------------------------4-5-4-5-4-2~--|
|-------------------------------------------------------------------------|

Repeat Riff D.2 (1 time)

Riff D.3                                                      1.
|--------------------------------------------------------17"-|--------------|
|------------------------------------19"-----19"---21"-------|------h-p-----|
|----16"---18"---19"-----19"---21"--------18"---18"---18"----|-6-7-6-7-6-4~-|Gtr
|-16"---16"---16"-----19"---19"---19"------------------------|--------------|
I
|------------------------------------------------------------|--------------|
|------------------------------------------------------------|--------------|

2.
|------------|
|------------|
|-4-7-6-7-9~-|
|------------|
|------------|
|------------|

*Gtr2 plays Riff A.1 on top of Solo 1 (2 times)

Solo 1* w/wah wah                 4x                                   4x
|------------------------------------|------------------------------------|
|------------------------------------|--t-p-p----t-p-p----t-p-p----t-p-p--|
|--t-p-p----t-p-p----t-p-p----t-p-p--|-14-10-7--14-10-7--15-10-7--15-10-7-|Gtr
|-16-12-9--16-12-9--17-12-9--17-12-9-|------------------------------------|
I
|------------------------------------|------------------------------------|
|------------------------------------|------------------------------------|
                                  4x                                   4x
|------------------------------------|------------------------------------|
|------------------------------------|--t-p-p----t-p-p----t-p-p----t-p-p--|
|--t-p-p----t-p-p----t-p-p----t-p-p--|-14-10-7--14-10-7--15-10-7--15-10-7-|Gtr
|-16-12-9--16-12-9--17-12-9--17-12-9-|------------------------------------|
I
|------------------------------------|------------------------------------|
|------------------------------------|------------------------------------|

|-----|
|-----|
|-11~-|Gtr
|-----| I
|-----|
|-----|
End Solo 1

Repeat Riff A.2 (2 times)*both guitars
Repeat Riff B.1 (1 time)
Repeat Riff B.2 (1 time)
Repeat Riff B.1 (1 time)
Repeat Riff B.2 (1 time)

Riff E.1
|----------------------------------------------------------|
|----------------------------------------------------------|
|------------h---------------------------------------------|Gtr
|-6---------4-6--6----------h------------------------6--p--| I
|-4-4"----7------4-4"----4-7-6--6-----6-----------6"---7-6-|
|-------------------------------4-4"--4-4"--4"-7"----------|
|                                                          |
|----------------------------------------------------------|
|----------------------------------------------------------|
|---------------------------p------------------------------|Gtr
|-6----------h---6---------6-4-----------------------6--p--| II
|-4-4"----4-6-7--4-4"----4------6-----6-----------6"---7-6-|
|-------------------------------4-4"--4-4"--4"-7"----------|

Repeat Riff E.1 (1 time)

E.2                               1.                        2.
|--------------------------------|-------------------------|-------------------|
|--------------------------------|-------------------------|-------------------|
|--------------------------------|-------------------------|-------------------|
|--------------------------------|-------2-----------2-----|------2-------9-8-7|
|-4-----4--4--p---4-----4-----p--|-2-----2-----2-----2-----|-2----2-----2-7-6-5|
|-2-2"--2----5-4--2-2"--2--5-4-2-|-0-0"----0"--0-0"----0"--|-0-0"---0"--0------|

F.1                       2x                         1.                 2.
|---------------------------|-----------------------|----------------|---------|
|---------------------------|-----------------------|----------------|---------|
|---------------------------|-----------------------|----------------|---------|
|-6----6--6-----------------|---------------------2-|----------------|---9-8-7-|
|-4----4--4----6----6--6----|-4----4--4--4----p---2-|----------------|---7-6-5-|
|-4----4--4----4----4--4----|-2----2--2----5-4-2--0-|-0000-0000-0000-|-0-------|
       .            .              .                  .... .... ....
End of Riff F.1

Solo 2 Gtr3 plays Riff F.1 on top
|-------------------------------------------------------------|
|-------------------------------/16-14------16-14----------16-|
|-/13-11------13-11----------11--------16~--------16-15-16----|
|--------14~--------14-13-14----------------------------------|
|-------------------------------------------------------------|
|-------------------------------------------------------------|
|                                                             |
|-------------------------------------------------------------|
|-------------------------------------------------------------|
|-------------------------------/16-15------16----------------|
|-/14-13------14-13----------14--------18~-----18----------18-|
|--------16~--------16----16----------------------18----18----|
|----------------------16----------------------------16-------|

   h  p  p      h  p  p      h  p  p      h  p  p
|14-16-14-12--14-16-14-12--14-16-14-12--14-16-14-12-|
|---------------------------------------------------|
|---------------------------------------------------|
|---------------------------------------------------|
|---------------------------------------------------|
|---------------------------------------------------|
|                                                   |
|--h--p--p------h--p--p------h--p--p------h--p--p---|
|16-17-16-14--16-17-16-14--16-17-16-14--16-17-16-14-|
|---------------------------------------------------|
|---------------------------------------------------|
|---------------------------------------------------|
|---------------------------------------------------|

                  h  p  p                   h  p  p
|---h--p--p----16-17-16-14----h--p--p----16-17-16-14--------------------------|
|-16-17-16-14---------------16-17-16-14---------------/16-14----------14------|
|------------------------------------------------------------16-15-16----16~--|
|-----------------------------------------------------------------------------|
|-----------------------------------------------------------------------------|
|-----------------------------------------------------------------------------|

|---h--p--p------h--p--p------h--p--p------h--p--p----------------------------|
|-16-17-16-14--16-17-16-14--16-17-16-14--16-17-16-14--/16-14----------14------|
|------------------------------------------------------------16-15-16----16~--|
|-----------------------------------------------------------------------------|
|-----------------------------------------------------------------------------|
|-----------------------------------------------------------------------------|

|-----------------------------------------------------------------------------------------------|
|-----------------------------------------------------------------------------------------------|
|-11-9-------h---9------------------------------------------------------------------------------|
|-------13-11-13----13--------------------------------9--7-----------7--------------------------|
|----------------------12~----------------------------------11-9--11----11/14-14\11-11/14-14/16-|
|-----------------------------------------------------------------------------------------------|

|-----------------------------------------------------------------------------------------------|
|-----------------------------------------------------------------------------------------------|
|-14-13------h---13----14-----------------------------------------------------------------------|
|-------16-14-16----16----16---h--p--------h--p-------------------------------------------------|
|----------------------------16-17-16-14-14-16-14-------------------------------------------h---|
|-------------------------------------------------17--16-14-12-11-12-14-12/16-16\12-12/16-16-17-|


|----------------------------------------------------|
|----------------------------------------------------|
|----------------------------------------------------|
|-11-------------------------------------------------|
|----14-12-11-12-14-12~------------------------------|
|----------------------------------------------------|

|----------------------------------------------------|
|----------------------------------------------------|
|----------------------14----------------------------|Gtr II
|-------------------------16---h--p--------h--p------|
|----------------------------16-17-16-14-14-16-14----|
|-17-16-14-12-14-16-14----------------------------17-|

|-------------------------------------------------------------------------|
|-------------------------------------------------------------------------|
|---------------------------------------h--h-------------h--h------h--h---|Gtr
|------------------------------h--h--11-12-14----h--h--11-12-14--11-12-14-|
I
|-14-12-11----11-12----h--h--11-12-14----------11-12-14-------------------|
|----------14--------12-14-16---------------------------------------------|

|-------------------------------------------------------------------------|
|-------------------------------------------------------------------------|
|--------------------------------------h--h--------------h--h------h--h---|
-------------------------------h--h--11-12-14----h--h--11-12-14--11-12-14-|
|----------------------h--h--11-12-14----------11-12-14-------------------|
|-16-14-12-11-12-14--12-14-16---------------------------------------------|

End of Solo 2

Riff G.1
|---2-----------------h--|
|-------2---1---1----1-2-|
|------------------------|Gtr
|------------------------| I
|------------------------|
|-2----------------------|
|                        |
|---2(2)--------------h--|
|-------2(2)1(1)1(1)-1-2-|   *only guitar II plays w/delay, the notes in the
()
|------------------------|Gtr  are the delayed notes.
|------------------------| II
|------------------------|
|-2----------------------|

Repeat Riff G.1 (2 times)

Fill 5
|-----------------|
|-----------------|
|-----6-----------|Gtrs I
|-----4-6-5-5-5/6-|  & II
|-4-4---4-3-3-3/4-|
|-2-2-------------|
  . .

Riff G.2
|-----------------------------------------------------------------------------|
|-----------------------------------------------------------------------------|
|-----------------------------------------------------------------------------|
|------4----------------------------h--------4-----------------------------h--|
|-------------4------3------3------3-4--------------4------3----3----3----3-4-|
|-2222---2222---2222---2222---2222------2222---2222---2222---22---22---22-----|
  ....   ....   ....   ....   ....      ....   ....   ....   ..   ..   ..

Repeat Riff G.2 (1 time)

Riff G.3 Gtr2 plays Riff G.2 (2 times) on top
|------------------------------------------------------------------------------|
|------------------------------------------------------------------------------|
|------11---------------------------h--------11------------------------------h-|
|-------------11-----10-----10----10-11-------------11-----10---10---10---10-11|
|-9999---9999---9999---9999---9999------9999---9999---9999---99---99---99------|
|------------------------------------------------------------------------------|
  ....    ....    ....    ....    ....        ....    ....    ....    ..
..    ..

Repeat Riff G.2 (1 times)
Repeat Riff D.1 (2 times)
Repeat Riff D.2 (2 times)*Gtr II plays Riff D.1 on top of Riff D.2 and D.3
4x
Repeat Riff D.3 (2 times)
but with this second ending
|-------|----|
|-------|----|
|-4-7-6-|-7~-|
|-------|----|
|-------|----|
|-------|----|
        |    |
        |----|
        |----|
        |-7~-|
        |-7~-|
        |-5~-|
        |----|



         Riff I.1
|-------|-------------------------------------------------|
|-------|-------------------10"---11-8--------------------|
|-------|-7-----9"---10----------------7------------9"-6--|Gtr
|-Synth-|---7------7----7-------7--------5"---------------| I
|-------|-----5-----------5-----------------5-4-5-7-------|
|-------|-------------------------------------------------|
        |                                                 |
|-------|-------------------------------------------------|
|-------|-------------------------------------------------|
|-------|-------------------------------------------------|Gtr
|-Synth-|-------------------8\------------------ hp-------| II
|-------|-------------------8\-----------------8787-------|
|-------|-------------------------3"----------5----9~-----|
I.2
|-------------------------------------------------|
|-------------------10"---11-8--------------------|
|-7-----9"---10----------------7------------9"-6--|Gtr
|---7------7----7-------7--------5"---------------| I
|-----5-----------5-----------------5-4-5-7-------|
|-------------------------------------------------|
|                                                 |
|-------------------------------------------------|
|-------------------------------------------------|
|----------------------------------------------hp-|Gtr
|----------------------------------------hp--8787-| II
|-5"-----------------------------------8787-------|
|-------------------------3"----------5----9------|

I.3
|-------------------------------------------------|
|-------------------10"---11-8--------------------|
|-7-----9"---10----------------7------------9"-6--|Gtr
|---7------7----7-------7--------5"---------------| I
|-----5-----------5-----------------5-4-5-7-------|
|-------------------------------------------------|
|                                                 |
|                                                 |
|-------------------------------------------------|
|-------------------------------------------------|
|-------------------------------------------------|Gtr
|----------------------------------------hp-------| II
|-5"-----------------------------------8787-------|
|-------------------------3"----------5----9~-----|

Repeat Riff I.2 (1 time)
Repeat Riff I.3 (1 time)
Repeat Riff I.2 (1 time)

|----|
|----|
|-7~-|
|----|
|----|
|----|
|    |
|----|
|----|
|-7~-|
|-7~-|
|-5~-|
|----|


4. Hybrid Stigmata -The Apostasy

Riff A.1
|---------------------------------------------------------|
|---------------------------------------------------------|
|---------------------------------------------------------|Gtrs I
|-5--5-----4---5--5-----8---5-5-----4--4-4-4--444-4--4444-|  & II
|-3--3-333-2---3--3-333-6---3-3-333-2--2-2-2--222-2--2222-|
|-3--3-----2---3--3-----6---3-3-----2--2-2-2--222-2--2222-|
       ...          ...         ...    . . .  ... .  ....

Repeat Riff A.1 (5 times)

Fill 1
|-----------|
|-----------|
|-----------|Gtrs I
|-4444-4444-|  & II
|-2222-2222-|
|-2222-2222-|
  .... ....

Riff A.2 w/wah wah
|-----------------3-3------------------4-4------------------4-4-|
|---3----4----6---4-4----3----4----6---5-5----3----4----6---5-5-|
|---5----5---------------5----5---------------5----5------------|Gtr
|---------------------------------------------------------------| I
|---------------------------------------------------------------|
|---------------------------------------------------------------|
|                                                               |
|---------------------------------------------------------------|
|---------------------------------------------------------------|
|---------------------------------------------------------------|Gtr
|-----------------5-5------------------6-6------------------5-5-| II
|---5----6----8----------5----6----8----------5----6----8-------|
|---------------------------------------------------------------|
|                                                               |
|---------------------------------------------------------------|
|---------------------------------------------------------------|
|---------------------------------------------------------------|Gtr
|-5555-5555-5444-4444--5555-5555-5888-8888--5555-5555-5444-4444-| III
|-3333-3333-3222-2222--3333-3333-3666-6666--3333-3333-3222-2222-|
|-3333-3333-3222-2222--3333-3333-3666-6666--3333-3333-3222-2222-|
  .... .... .... ....  .... .... .... ....  .... .... .... ....


(First time)         (2nd time)
|-------------------|----------------------A.h----|
|-------------------|--------------7----6---7~----|
|-4------7-6-7-6~---|-4------7-6-7----------------|Gtr
|-----4-------------|-----4-----------------------| I
|-------------------|-----------------------------|
|-------------------|-----------------------------|
|                   |                             |
|-------------------|-----------------------------|
|-------------------|-----------------------------|
|-------------------|----------------------A.h----|Gtr
|-------------------|--------------4----3---4~----| II
|-2------5-4-5-4----|-2------5-4-5----------------|
|-----2-------------|-----2-----------------------|
|                   |                             |
|-------------------|-----------------------------|
|-------------------|-----------------------------|
|-------------------|-----------------------------|Gtr
|-4-4-4--444-4-4444-|-4-4-4--444-4-4444-4444-4444-| III
|-2-2-2--222-2-2222-|-2-2-2--222-2-2222-2222-2222-|
|-2-2-2--222-2-2222-|-2-2-2--222-2-2222-2222-2222-|
  . . .  ... . ....   . . .  ... . .... .... ....

Riff B.1                                            (first time)
|---------------------------------------------------|-----|
|------------------------h-p-h----------------------|-----|
|------------h----h--1--0-1-0-1---------------------|-----|Gtrs I
|-------2---2-3--2-3--------------------2--------h--|--h--|  & II
|-0---3---3-----------------------0---3---3---3-2-3-|-2-3-|
|-------------------------------------------1-------|-----|

(2nd time)
|-----|
|-----|
|-----|Gtrs I
|-----|  & II
|-----|
|-4\--|

Riff B.2                                    (first time)
|-------------------------------------------|-----------------|
|-------------------------------------------|-----------------|
|-----------------1"-0"-1"------------------|-----------------|Gtrs I
|--------2"----3"------------------2"-------|-----------------|  & II
|-0"--3"----3"--------------0"--3"----3"----|-3"--2"-3"-2"-3"-|
|----------------------------------------1"-|-----------------|

(2nd time)
|-----------|
|-----------|
|-----------|Gtrs I
|-----------|  & II
|-3"-2"-----|
|-------4\--|

Repeat Riff B.2 (1 time)

Riff C.1
|---------------------------------|
|---------------------------------|
|---------------------------------|Gtr
|-4-------h-p-h---3-------------3-| I
|-4------3-5-3-5--3-------------3-|
|-2-2222----------1-1-11-111-11-1-|
|   ....            . .. ... ..   |
|---------------------------------|
|---------------------------------|
|---------h-p-h-------------------|Gtr
|-4------4-5-4-5--3-------------3-| II
|-4---------------3-------------3-|
|-2-2222----------1-1-11-111-11-1-|
    ....            . .. ... ..

Repeat Riff C.1 (3 times)
Repeat Riff B.2 (1 time)

Riff D.1                                                  (first time)
|---------------------------------------------------------|----------------|
|---------------------------------------------------------|----------------|
|---------------------------------------------------------|----------------|Gtrs
|-9------9------9----9----9----10---9--5------5------5----|-5----5----5-8--|I&II
|-7-7777-7-7777-7-77-7-77-7-77-7-77-7--3-3333-3-3333-3-33-|-3-33-3-33-3-6--|
|---------------------------------------------------------|----------------|
    ....   ....   ..   ..   ..   ..      ....   ....   ..     ..   ..

(2nd time)
|------------|
|------------|
|------------|Gtrs I
|-6666-66-3--|  & II
|-6666-66-3--|
|-4444-44-1--|
  .... ..

Repeat Riff D.1 (2 times)

Riff E.1
|----------------------------------------------|
|----------------------------------------------|
|---------------------2-4----------------------|Gtrs I
|-2-2--------2-2------2-2--2---------------0-2-|  & II
|-2-2--------2-2-----------2--------2------0-2-|
|-0-0-1-1111-0-0-1-11------0-1-1111-0-0000-----|
      . ....     . ..        . ....   ....

Repeat Riff E.1 (1 time)

Riff E.2
|----------------------------------------------|
|----------------------------------------------|
|----------------------------------------------|Gtrs I
|-2-2--------2-2------1-2--2---------------0-2-|  & II
|-2-2--------2-2-----------2--------2------0-2-|
|-0-0-1-1111-0-0-1-11------0-1-1111-0-0000-----|
      . ....     . ..        . ....   ....

Repeat Riff E.2 (1 time)

Fill 2 *let ring
|-----|
|--*--|
|-5~--|Gtrs I
|-5~--|  & II
|-3~--|
|-3~--|

Fill 3
|-----|
|-----|
|-----|Gtrs I
|-8\--|  & II
|-8\--|
|-----|

Riff F.1 *let ring
|-----------------------------|
|-----------------------------|
|--*------*------*------*-----|Gtrs I
|-6------2------6------3------|  & II
|-6------2------6------3------|
|-4------0------4------1------|

Riff F.2
|---------------------------------------------|
|---------------------------------------------|
|---------------------------------------------|Gtrs I
|-6----------6----------5----------5----------|  & II
|-4-4-4-4444-4-4-4-4444-3-3-3-3333-3-3-3-3333-|
|-4----------4----------3----------3----------|
    . . ....   . . ....   . . ....   . . ....
Riff F.3 *let ring
|---------------|
|---------------|
|--*------*-----|Gtrs I
|-6------3------|  & II
|-6------3------|
|-4------1------|

Repeat Riff F.2 (1 time)
Repeat Riff F.3 (1 time)

Riff F.4                                           *let ring
|------------------------------------------------------|
|------------------------------------------------------|
|-------------------------------------------------*----|Gtrs I
|-2--2-------2--2-------2--2-------2------2------2-----|  & II
|-2--2--2-2--2--2--2-2--2--2--2-2--2-2-2--2-2-2--2-----|
|-0--0--0-0--0--0--0-0--0--0--0-0--0-0-0--0-0-0--0-----|
        . .        . .        . .    . .    . .

Repeat Riff F.4 (1 time)

Fill 4 *pick slide
|--------------------|
|----------*let ring-|
|---------5----------|Gtrs I
|--*------5----------|  & II
|-x\------3----------|
|-x\-----------------|

Repeat Riff F.2 (1 time)
Repeat Riff F.3 (1 time)
Repeat Riff F.2 (1 time)

Riff F.3 subst. *let ring
|---------------|
|---------------|
|--*------*-----|Gtrs I
|-6------7------|  & II
|-6------7------|
|-4------5------|

Repeat Riff D.1 (3 time)
Repeat Riff E.1 (4 times)
Repeat Fill 2 (1 time)

Riff A.1 subst.
|---------------------------------------------|
|---------------------------------------------|
|---------------------------------------------|Gtrs I
|-5--5-----8---5--5-----4--4-4-4--444-4--4444-|  & II
|-3--3-333-6---3--3-333-2--2-2-2--222-2--2222-|
|-3--3-----6---3--3-----2--2-2-2--222-2--2222-|
       ...          ...    . . .  ... .  ....

Repeat Riff A.1 (5 times)

Fill 5                  *let ring
|---------------------------------|
|---------------------*-----------|
|--------------------5------------|Gtrs I
|-4444-4444-4444-44--5------------|  & II
|-2222-2222-2222-22--3------------|
|-2222-2222-2222-22--3------------|
  .... .... .... ..



5. Architecture of A Genocidal Nature

Tunning E A D G B E




This is how I play this song:




|----------|    Start the song with that chord (let ring)
|----------|
|----------|
|-5--------|
|-5--------|
|-3--------|


Riff 1

|-------------------------------------------------------------------|
|-------------------------------------------------------------------|
|-------------------------------------------------------------------|
|-------------------5-----------------8-----12-----9----------------|
|-2-----------------5-----2-----------6-----10-----7----------------|
|-0-000-0-000-0-000-3-----0-000-0-000-6-----10-----7-000-0-000-0-000|

    ... . ... . ...         ... . ...                ... . ... . ...


|-------------------------------------------------------------------|
|-------------------------------------------------------------------|
|-------------------------------------------------------------------|
|-5-----------------------------------------------------------------|
|-5------------------00022211222444444445555------------------------|
|-3-----3333666622222-----------------------------------------------|

        ....................................

 ( Amount? Something like that. Who really knows? It's so fast!)



Riff 1 alt

|-------------------------------------------------------------------|
|-------------------------------------------------------------------|
|-------------------------------------------------------------------|
|-------------------5-----------------8-----12-----9----------------|
|-2-----------------5-----2-----------6-----10-----7----------------|
|-0-000-0-000-0-000-3-----0-000-0-000-6-----10-----7-000-0-000-0-000|

    ... . ... . ...         ... . ...                ... . ... . ...


|-------------------------------------------------------------------|
|-------------------------------------------------------------------|
|-------------------------------------------------------------------|
|-5------------------------------5--4-------------------------------|
|-5------------------00022211222-5--4-------------------------------|
|-3-----3333666622222------------3--2-------------------------------|

        ........................



Riff 2

|-------------------------------------------------------------------|
|-------------------------------------------------------------------|
|-------------------------------------------------------------------|
|-------------------5-----------------8-----12-----9----------------|
|-2-----------------5-----2-----------6-----10-----7----------------|
|-0000000000000000003-----0000000000006-----10-----70000000000000000|

   .................       ...........              ................


|-------------------------------------------------------------------|
|-------------------------------------------------------------------|
|-------------------------------------------------------------------|
|-5-----------------------------------------------------------------|
|-5------------------00022211222444444445555------------------------|
|-3-----3333666622222-----------------------------------------------|

        ....................................



Riff 2 alt

|-------------------------------------------------------------------|
|-------------------------------------------------------------------|
|-------------------------------------------------------------------|
|-------------------5-----------------8-----12-----9----------------|
|-2-----------------5-----2-----------6-----10-----7----------------|
|-0000000000000000003-----0000000000006-----10-----70000000000000000|

   .................       ...........              ................


|-------------------------------------------------------------------|
|-------------------------------------------------------------------|
|-------------------------------------------------------------------|
|-5------------------------------5--4-------------------------------|
|-5------------------00022211222-5--4-------------------------------|
|-3-----3333666622222------------3--2-------------------------------|

        ........................


Fill 1
|----------| * let ring
|----------|
|----------|
|-7--------|
|-5--------|
|-5--------|



Riff 3


|---------------------------------------|
|---------------------------------------|
|---------------------------------------|
|-7--------------------------------7\---|
|-5--------------------------------5\---|
|-5--------------------------------5\---|


|---------------------------------------|
|---------------------------------------|
|---------------------------------------|
|---------------------------------------|
|-4------4----4------4------4----4------|
|-2-2222-2-22-2-2222-2-2222-2-22-2-2222-|

    ....   ..   ....   ....   ..   ....



Riff 3 alt


|---------------------------------------| *This is just to simplify the tab
|---------------------------------------|  Actually, I play it on the
|---------------------------------------|  10th frame on the 6 string
|---------------------------------------|  It keeps a better flow
|-55555555555555555555555555555555------|
|---------------------------------------|

  ................................ (softly)


|---------------------------------------|
|---------------------------------------|
|---------------------------------------|
|---------------------------------------|
|---------------------------------------|
|-22222222222222222222222222222222------|

  ................................ (softly)


riff 3 alt Second guitar

|---------------------------------------|
|---------------------------------------|
|------2------3------9------7----3----2-|
|-0000-0-0000-0-0000-0-0000-0-00-0-00-0-|
|---------------------------------------|
|---------------------------------------|

  ....   ....   ....   ....   ..   ..


|---------------------------------------|
|---------------------------------------|
|---------------------------------------|
|---------------------------------------|
|------4------3------2------0----2----4-|
|-2222-2-2222-2-2222-2-2222-2-22-2-22-2-|

  ....   ....   ....   ....   ..   ..


Fill 2
|----------|
|----------|
|----------|
|-7\-------|
|-5\-------|
|-5\-------|


Fill 3


|----------------------------|
|----------------------------|
|----------------------------|
|-4-44444-12---10--6---------|
|-2-22222-10---8---4---------|
|-2-22222-10---8---4---------|

    .....

Riff 4

|------------------------------------------------------|
|------------------------------------------------------|
|------------------------------------------------------|
|-7----7-7-7--7/8-8-8--8-8-8\4-4--4--4-4---5-5-5---5-5-|
|-5----5-5-5--5/6-6-6--6-6-6\2-2--2--2-2---3-3-3---3-3-|
|-5----5-5-5--5/6-6-6--6-6-6\2-2--2--2-2---3-3-3---3-3-|


|------------------------------------------------------|
|------------------------------------------------------|
|------------------------------------------------------|
|-7----7-7-7--7/8-8-8--8-8--4-44444-12---10--6---------|
|-5----5-5-5--5/6-6-6--6-6--2-22222-10---8---4---------|
|-5----5-5-5--5/6-6-6--6-6--2-22222-10---8---4---------|

                              .....

Fill 4
|----------|
|----------|
|----------|
|----------|
|----------|
|-5\-------|

  ~


Fill 5
|----------|
|----------|
|----------|
|-5--------|
|-5--------|
|-3--------|


Riff 4 alt
|------------------------------------------------------|
|------------------------------------------------------|
|------------------------------------------------------|
|-7----7-7-7-7/8----8-8-8-8\4----4-4-4-4/5----5--------|
|-5----5-5-5-5/6----6-6-6-6\2----2-2-2-2/3----3--------|
|-5----5-5-5-5/6----6-6-6-6\2----2-2-2-2/3----3--------|


|------------------------------------*-----------------| * Insert fill 6
|------------------------------------*-----------------|
|------------------------------------*-----------------|
|-7----7-7-7-7/8----8-8-8-8\4-44444--12---10--6--------|
|-5----5-5-5-5/6----6-6-6-6\2-22222--10---8---4--------|
|-5----5-5-5-5/6----6-6-6-6\2-22222--10---8---4--------|

                              .....


Fill 6
|-------------------------------------|
|-------------------------------------|
|-------------------------------------|
|--------------------------5----------|
|--------------00022211222-5----------|
|-3333666622222------------3----------|

  ........................



Order:

Riff 1 x 2
Riff 1 alt
Riff 2
Riff 2 alt
Riff 2
Riff 2 alt
Fill 1
Riff 3 x 2
Riff 3 alt x 2
Riff 3 alt x 2 + Second guitar x 2
Fill 2
Fill 3
Riff 4 x 2
Fill 4
Fill 5
Riff 2
Riff 2 alt
Riff 2
Riff 2 alt
Riff 3 x 2
Riff 3 alt x 4 + Second guitar x4
Riff 4 alt x 2
Fill 6 * goes at the end of Riff 4 alt where I put this mark:*
Riff 1
Riff 1 alt
Riff 2
Riff 2 alt
Riff 2
Riff 2 alt * Finish last two notes with a heavy palm mute



6. Puritania

Riff 1:

|-------------------------------------------------------|
|-------------------------------------------------------|
|-------------------------------------------------------|
|-----------6--6-6-6-6-5-5-5-----------6--6-6-6-6-5-5-5-|
|-4444-4444-4--4-4-4-4-5-5-5-4444-4444-4--4-4-4-4-5-5-5-|
|-4444-4444-4--4-4-4-4-3-3-3-4444-4444-4--4-4-4-4-3-3-3-|



Riff 2:

|------------------------|
|------------------------|
|------------------------|
|-66-66-66-66-55-55------|
|-44-44-44-44-33-33--6-5-|
|-44-44-44-44-33-33--4-3-|



7. IndoctriNation

Tuning: E, A, D, G, B, e



INTRO:

 e[-------------------------------------]
 B[-------------------------------------]
 G[-------------------------------------]
 D[---11-9-11-9-11-12-12-12-12-12-12\---]
 A[-2--9-7--9-7--9-10-10-10-10-10-10\\--]
 E[-0--------------------------------\\-]



VERSE:

   (probably fast picking)
 e[----------------------------]
 B[----------------------------]
 G[----------------------------]
 D[----------------------------]
 A[-2--4---4---4-5---4-----5\4-]
 E[-0--2-0-2-0-2-3---2--0--3\2-]


 e[-------------------------------------]
 B[-------------------------------------]
 G[-------------------------------------]
 D[---11-9-11-9-11-12-12-12-12-12-12\---]
 A[-2--9-7--9-7--9-10-10-10-10-10-10\\--]
 E[-0--------------------------------\\-]


 e[----------------------------]
 B[----------------------------]
 G[----------------------------]
 D[----------------------------]
 A[-2--4---4---4-5---4-----5\4-]
 E[-0--2-0-2-0-2-3---2--0--3\2-]



BREAK:

 e[---------------------|----------------------]
 B[---------------------|----------------------]
 G[-9---8---9---8---5-4-|-9---8---9---5--------]
 D[-9---8---9---8---5-4-|-9---8---9---5----7-3-]
 A[-7---6---7---6---3-2-|-7---6---7---3----7-3-]
 E[---0---0---0---0-----|---0---0---0---0--5-1-]
                                           PM_

  (1x)
 e[---------------------|----------------------]
 B[---------------------|----------------------]
 G[-9---8---9---8---5-4-|-9---8---9---5--------]
 D[-9---8---9---8---5-4-|-9---8---9---5----7-3-]
 A[-7---6---7---6---3-2-|-7---6---7---3----7-3-]
 E[---------------------|------------------5-1-]
                                           PM_

 e[---------------------|----------------------]
 B[---------------------|----------------------]
 G[-9---8---9---8---5-4-|-9---8---9---5--------]
 D[-9---8---9---8---5-4-|-9---8---9---5----7-3-]
 A[-7---6---7---6---3-2-|-7---6---7---3----7-3-]
 E[---0---0---0---0-----|---0---0---0---0--5-1-]
                                           PM_

 e[-------------------------------------|-------------------------------------]
 B[-------------------------------------|-------------------------------------]
 G[-4-----------------------------------|-4-----------------------------------]
 D[-4--------5--------8-----------------|-4--------5--------8-----------------]
 A[-2--------5--------6-----------------|-2--------5--------8-----------------]
 E[----------3--------6-----------------|----------3--------6-----------------]


 e[-------------------------------------|--------------------------------------]
 B[-------------------------------------|--------------------------------------]
 G[----4-5-4-------------8-9-8----8-9-8-|-----4-5-4----------------------------]
 D[-------------5-6-5-------------------|--------------5-6-5----8-9-8----8-9-8-]
 A[-2-----------------6--------6--------|--2-----------------------------------]
 E[----------3--------------------------|-----------3--------6--------6--------]


BREAK

    (let ring...)
 e[---------------------------]
 B[---------------------------]
 G[---------------------------]
 D[-6-------------------------]
 A[-4-------------------------]
 E[-4-------------------------]


RIFF A/

 e[-------------------------------------------------------------------------------------------]
 B[-------------------------------------------------------------------------------------------]
 G[-------------------------------------------------------------------------------------------]
 D[-7-7-7-7-7-7-------7-7-7-9-9-9-9-9-9-------9-9-9-7-7-7-7-7-7-------7-7-7-9-9-9-9-9-9-------]
 A[-------------7-7-7-------------------7-7-7-------------------7-7-7-------------------7-7-7-]
 E[-------------------------------------------------------------------------------------------]

 e[-------------------------------------------------------------------------------------------]
 B[-------------------------------------------------------------------------------------------]
 G[-------------------------------------------------------------------------------------------]
 D[-14-14-14-14-14-14----------14-14-14-13-13-13-13-13-13----------13-13-13-14-14-14-14-14-14-]
 A[-------------------15-15-15----------------------------15-15-15----------------------------]
 E[-------------------------------------------------------------------------------------------]

 e[-------------------------------------]
 B[-------------------------------------]
 G[-------------------------------------]
 D[----------14-14-14-13-13-13-13-13-13-]
 A[-15-15-15----------------------------]
 E[-------------------------------------]

 e[-----------------------------------------------------------------------------------------------------]
 B[-°-------------------------------------------------------------------------------------------------°-]
 G[-----------------------------------------------------------------------------------------------------]
 D[---6-6-6-6-6-6-------6-6-6-5-5-5-5-5-5-------5-5-5-6-6-6-6-6-6-------6-6-6-7-7-7-7-7-7-------7-7-7---]
 A[-°-------------7-7-7-------------------7-7-7-------------------7-7-7-------------------7-7-7-------°-]
 E[-----------------------------------------------------------------------------------------------------]

 e[-------------------------------------------------------------------------------------]
 B[-------------------------------------------------------------------------------------]
 G[-------------------------------------------------------------------------------------]
 D[-7-7-7-------7-7-7-9-9-9-9-9-9-------9-9-9-7-7-7-7-7-7-------7-7-7-9-9-9-9-9-9-------]
 A[-------7-7-7-------------------7-7-7-------------------7-7-7-------------------7-7-7-]
 E[-------------------------------------------------------------------------------------]

 e[---------------------------------------------------------------------------------------------]
 B[-°-------------------------------------------------------------------------------------------]
 G[---------------------------------------------------------------------------------------------]
 D[---14-14-14-14-14-14----------14-14-14-13-13-13-13-13-13----------13-13-13-14-14-14-14-14-14-]
 A[-°-------------------15-15-15----------------------------15-15-15----------------------------]
 E[---------------------------------------------------------------------------------------------]

 e[---------------------------------------------------------]
 B[-------------------------------------------------------°-]
 G[---------------------------------------------------------]
 D[----------14-14-14-13-13-13-13-13-13----------13-13-13---]
 A[-15-15-15----------------------------15-15-15----------°-]
 E[---------------------------------------------------------]


BREAK:

 e[-------------------------------]
 B[-------------------------------]
 G[-------------------------------]
 D[-------------------------------]
 A[-5-4-5-7-8-7-8-10-11-----------]
 E[-3-2-3-5-6-5-6--8--9-----------]
    PM______________

+ RIFF A/



END:
              (let ring...)
 e[---------------------------------]
 B[---------------------------------]
 G[---------------------------------]
 D[-6--6-6-6--5---------------------]
 A[-4--4-4-4--3---------------------]
 E[-4--4-4-4--3---------------------]
    PM______


   (4x)                                (let ring...)
 e[----------------------------------------------------------]
 B[----------------------------------------------------------]
 G[----------------------------------------------------------]
 D[-6------------7--------7--6--6-6-6--5---------------------]
 A[-6------------5--------5--4--4-4-4--3---------------------]
 E[-4------------5--------5--4--4-4-4--3---------------------]
                             PM______

   (4x)
 e[-----------------------------------------------------------]
 B[-----------------------------------------------------------]
 G[-----------------------------------------------------------]
 D[-6------------7--------7--6--6-6-6--5----6-5---6-6-5---5-6-]
 A[-6------------5--------5--4--4-4-4--3----4-3---4-4-3---3-4-]
 E[-4------------5--------5--4--4-4-4--3----4-3---4-4-3---3-4-]
                             PM______      PM     PM_       PM



8. The Maelstrom Mephisto

Tuning E A D G B E
Riff #1. Fast.  Intro:Drum Roll.
|-------------------------------------------------------------------|
|-------------------------------------------------------------------|
|--------------------------------------------------h----------------|
|------------------33333333------------------------0`1--------------|
|------------222222--------------------2222----2222-----------------|
|000000000000--------------000000000000----0000---------------------|
Riff #2. Fast Palm Mute.                          Fill #1.
|----------------------------------|-------------|------------------|
|----------------------------------|-------------|----(4)-----------|
|----------------------------------|-------------|11---t------------|
|------2------3------21-3---2------|-------------|---2-3------------|
|------2------3------21-3---2------|-------------|------------------|
|000000-000000-000000----000-000000|444444111111-|------------------|
 ...... ...... ......    ... ......
Riff#3.  SLightly fast..     Fill#1.            Transition to Riff#4.
|---------|----------------|----------------|  |------|
|---------|----------------|----------------|  |------|
|---------|----------------|----------------|  |------|
|2-3-2----|-2-3-2----------|4-\3-3----------|  |---- -|
|---------|----------------|2-\1-1-11111111-|  |2-3-2-|
|0-1-0-000|-0-1-0-00000000-|----------------|  |0-1-0-|
       ...        ........

Riff#4.                               Riff#5 a.   Fill#1.     Fill#2.(after fill#1 2x)
|-------------------------------|   |------|---|-----------|---------|
|-------------------------------|   |------|---|-----------|---------|
|-------------------------------|  v|------|---|-----------|---------|
|------2---1------1/2---5-1-1-2-|   |6-----|-5-|-----------|---------|
|-----------------------3-1-1-2-|   |4-----|-3-|---66----77|-6---7---|
|000000-000-000000---0003-------|   |4-----|-3-|---44----55|-4---5---|
 ...... ... ......   ...
Riff #5b.                                    .     ..    ..
|-------------------------------|
|-------------------------------|
|-------------------------------|  Riff #6.  Repeat #5, except no palm mute where
|6------5-------6---------------|  Indicated.
|4------3-------4-------6----7--|
|4------3-------4-------4----5--|
        .
Riff #7. slightly fast  Repeat riff 2x
|-----------------------------------------------------------------|
|-----------------------------------------------------------------|
|-----------------------------------------------------------------|
|6-----5-----6--666--6--666--6-666--6\5-5-------------------6-\5-5|
|4-----3-----4--444--4--444--4-444--4\3-3-4-444-4-444-4-444-4-\3-3|
|4-----3-----4--444--4--444--4-444--4\3-3-4-444-4-444-4-444-4-\3-3|
             .  ...  .  ...  . ...         . ... . ... . ...

Riff#8.  Fast...
|--------------------------------------------------------------------------|
|--------------------------------------------------------------------------|
|--------------------------------------------------------------------------|
|888888888888-------------6-666-6-666-6-666-6\5-5-6-666-6-666-6-666-6\5-5--|
|666666666666555555555555-4-444-4-444-4-444-4\3-3-4-444-4-444-4-444-4\3-3--|
|------------333333333333-4-444-4-444-4-444-4\3-3-4-444-4-444-4-444-4\3-3--|

                          . ... . ... . ...       . ... . ... . ...

Repeat Riff#2, Riff#3.,Transition, Riff #4. End...
Note:very last chord let ring out for half time..2/4.



9. Absolute Sole Right

Riff 1

E ------------------------------------------------------------
B ------------------------------------------------------------
G -------------4/10--10-----9---------------------------------
D 2-----2------3/9---9------8------2------3--6--6--3--2----2--
A 2-----2------2/8---8-8888-7-7777-2------3--6--6--3--2----2--
E 0-----0-0000-0-------------------0-0000-1--4—-4--1--0----0--
          pppp         pppp   pppp   pppp


E ------------------------------------------------------------
B ------------------------------------------------------------
G -----4/10--10-----9-----------------------------------------
D -----3/9---9------8-----------------------------------------
A -----2/8---8-8888-7-7777-----------5/6-3--------------------
E 0000-0-------------------4444-3333-3/4-1--------------------
  pppp         pppp   pppp pppp pppp



Riff 2 - First guitar


E ------------------------------------------------------------
B ------------------------------------------------------------
G ------------------------------------------------------------
D 2--------------------3--5--6--------5--------5--6--5--------
A 2--------------------3--5--6--------5--------5--6--5--------
E 0-----------------0--1--3--4--------3--------3--4--3--------
                    p  p  p                    p  p  p

E ------------------------------------------------------------
B ------------------------------------------------------------
G ------------------------------------------------------------
D 2--------------------3--5--6--------------------------------
A 2--------------------3--5--6-----------------2--------------
E 0-----------------0--1--3--4--------3--4--3-----4--3--------
                    p  p  p           p  p  p  p  p  p



Riff 2 - Second guitar

E ------------------------------------------------------------
B ------------------------------------------------------------
G ---------------------------444444444------------------------
D --55555555--------------------------66665555----------------
A ----------77777777777777777---------------------------------
E ------------------------------------------------------------
    pppppppppppppppp         ppppppppppppppppp  (half-palm)


Riff 3


E ------------------------------------------------------------
B ------------------------------------------------------------
G ------------------------------------------------------------
D ------------------------------------------------------------
A ----777777776666----77776666------------------------33332222
E 0000------------0000--------888877771111111144441111--------


E ----------
B ----------
G ----------
D ----------
A ----------
E 443344



Riff 3 alt 1


E ------------------------------------------------------------
B ------------------------------------------------------------
G ------------------------------------------------------------
D ----555555554444----55554444--------------------------------
A ----777777776666----77776666------------------------33332222
E 0000------------0000--------888877771111111144441111--------

  pppppppppppppppppppppppppppppppppppppppppppppppppppppppppppp


E ----------
B ----------
G ----------
D ----------
A ----------
E 443344

  pppppp



Riff 4


E ------------------------------------------------------------
B ------------------------------------------------------------
G ------------------------------------------------------------
D 7------7------7----7------7------7----7------7------7----7--
A 0-0000-0-0000-0-00-6-6666-6-6666-6-66-0-0000-0-0000-0-00-6--
E ------------------------------------------------------------
    pppp   pppp   pp   pppp   pppp   pp   pppp   pppp   pp

E ----------------
B ----------------
G 8\\-------------
D 7\\-------------
A 6\\-------------
E ----------------

E ------------------------------------------------------------
B ------------------------------------------------------------
G ------------------------------------------------------------
D 7------7------7----7------7------7----7------7------7-------
A 0-0000-0-0000-0-00-6-6666-6-6666-6-66-0-0000-0-0000-0-00----
E ------------------------------------------------------------
    pppp   pppp   pp   pppp   pppp   pp   pppp   pppp   pp



E ----------------  * play this twice the last time you play
B ----------------
G 6-----5-----4---    this riff
D --4-----3-----2-
A ----4-----3-----
E ----------------
  p p p p p p p p


Riff 5


E ------------------------------------------------------------
B ------------------------------------------------------------
G ------------------------------------------------------------
D 6------6------6---------------------------------------------
A 4-4444-4-4444-4-44-5------5------5----2------2------2-------
E -------------------3-3333-3-3333-3-33-0-0000-0-0000-0-00----
    pppp   pppp   pp   pppp   pppp   pp   pppp   pppp   pp
E ----------------
B ----------------
G ----------------
D ----5---8-------
A --7---7---7\\---
E 6---------------
  p p p p



Riff 2 - First guitar alt


E ------------------------------------------------------------
B ------------------------------------------------------------
G ------------------------------------------------------------
D 2--------------------3--5--------------------5--6--5--------
A 2--------------------3--5--------------------5--6--5--------
E 0-----------------0--1--3--4444444444333333--3--4--3--------
                    p  p  p                    p  p  p

E ------------------------------------------------------------
B ------------------------------------------------------------
G ------------------------------------------------------------
D 2--------------------3--5-----------------------------------
A 2--------------------3--5--------------------2--------------
E 0-----------------0--1--3--44444444-3--4--3-----4--3--------
                    p  p  p           p  p  p  p  p  p


Riff 3 alt 2

E ------------------------------------------------------------
B ------------------------------------------------------------
G ----3/4-----2-------3/4-3-----------------------------------
D ----1/2-----1-------1/2-1---5---4-------------------5---4---
A 2---------------2-----------3---2---3-------6---3---3---2---
E 0---------------0-------------------1-------4---1-----------


E ----------
B ----------
G ----------
D ----------
A 6\5/6-----
E 4\3/4-----



Riff 6

E ------------------------------------------------------------
B ------------------------------------------------------------
G ------------------------------------------------------------
D 5-5-------5-5-------5-5-------5-5-------4-4-------4-4-------
A 3-3--333--3-3--333--3-3--333--3-3--333--2-2--222--2-2--222--
E 3-3—-333--3-3--333--3-3--333--3-3--333--2-2--222--2-2--222--
       ppp       ppp       ppp       ppp       ppp       ppp


E ------------------------------------------------------------
B ------------------------------------------------------------
G ------------------------------------------------------------
D 4-4-------4--4--4-------------------------------------------
A 2-2--222--2--2--2-------------------------------------------
E 2-2--222--2--2--2-------------------------------------------
       ppp  p  p  p





Riff 7


E ------------------------------------------------------------
B ------------------------------------------------------------
G ------------------------------------------------------------
D 4---------------7-------8-------4---------------7-------8---
A 2---------------5-------6-------4---------------5-------6---
E 2---------------5-------6-------2---------------5-------6---

E -------
B -------
G -------
D 8-8----
A 6-6----
E 6-6----
  p p




Riff 7 alt


E ------------------------------------------------------------
B ------------------------------------------------------------
G ------------------------------------------------------------
D 4---------------7-------8-------4---------------7-------8---
A 2---------------5-------6-------4---------------5-------6---
E 2---2222222222225-------6-------2---2222222222225-------6---
      pppppppppppp                    pppppppppppp


E -------
B -------
G -------
D 8-8----
A 6-6----
E 6-6----
  p p



10. Sympozium

Tune to E (E,A,D,G,H,E)

Riff A.1
|-------------------------------------|
|-------------------------------------|
|-2-----------------------------------|Gtr I
|-2----h-p-------p---------h-p--------|
|-0---2-3-2-----3-2-------3-4-3-2-----|
|-----------4-------4-1-----------4-0-|
|                                     |
|-------------------------------------|
|-------------------------------------|
|-------------------------------------|Gtr II
|------h-p-------p---------h-p--------|
|-0---2-3-2-----3-2-------3-4-3-2-----|
|-----------4-------4-1-----------4-0-|

Repeat Riff A.1 (1 time)


Riff A.2
|-------------------------------------------------------------|
|-------------------------------------------------------------|
|-------------------------------------------------------------|Gtr I
|--------------h-p---------------p-----------------h-p--2-----|
|-000-000-000-2-3-2-------------3-2---------------3-4-3-2-----|
|-------------------444-444-444-----4-111-111-111---------4-0-|
| ... ... ...       ... ... ...       ... ... ...             |
|-------------------------------------------------------------|
|-------------------------------------------------------------|
|-------------------------------------------------------------|Gtr  II
|--------------h-p---------------p-----------------h-p--2-----|
|-000-000-000-2-3-2-------------3-2---------------3-4-3-2-----|
|-------------------444-444-444-----4-111-111-111---------4-0-|
  ... ... ...       ... ... ...       ... ... ...

|-------------------------------------------------------------|
|-------------------------------------------------------------|
|-------------------------------------------------------------|Gtr I
|--------------h-p---------------p-----------------h-p--2-----|
|-000-000-000-2-3-2-------------3-2---------------3-4-3-2-----|
|-------------------444-444-444-----4-111-111-111---------4-0-|
| ... ... ...       ... ... ...       ... ... ...             |
|-------------------------------------------------------------|
|-------------------------------------------------------------|
|-------------------------------------------------------------|Gtr II
|--------------h-p---------------p-----------------h-p--1-----|
|-000-000-000-2-3-2-------------3-2---------------3-4-3-2-----|
|-------------------444-444-444-----4-111-111-111---------4-0-|
  ... ... ...       ... ... ...       ... ... ...

Repeat Riff A.1 (2 times)

Riff B.1
|-----------------|
|-----------------|
|-----------------|Gtrs I
|-5--5-5-5--5-5-5-|  & II
|-3--3-3-3--3-3-3-|
|-----------------|
  .  . . .  . . .

Riff B.2
|------------------------|
|------------------------|
|-----------------h-p----|Gtr I
|-------------5--3-5-3---|
|-3--------6-----------5-|
|-1--------4-------------|
|                        |
|------------------------|
|------------------------|
|------------------------|Gtr II
|-----------------h-p----|
|-3-----------6--5-6-5---|
|-1--------4-----------6-|

Riff B.3
|---------------------------------|
|---------------------------------|
|--------------------------h-p----|Gtr I
|-5--------------------5--3-5-3---|
|-3--------3--------6-----------5-|
|----------1--------4-------------|
|                                 |
|---------------------------------|
|---------------------------------|
|---------------------------------|Gtr II
|-5------------------------h-p----|
|-3--------3-----------6--5-6-5---|
|----------1--------4-----------6-|

Riff B.4
|-----------------------------------------------------------------|
|-----------------------------------------------------------------|
|-----------------------------------------------------------------|Gtrs I
|----------------------------5"-3"-5"-6"--------h-p---------------|  & II
|-3"---6"-5"----3"--6"-5"-------------------3"-2-3-2-----6"-5"----|
|------------6"-----------6"-------------1"-----------4"-------6"-|

Repeat Riff B.4 (1 time)
Repeat Riff B.3 (2 times)
Repeat Riff B.4 (2 times)

Riff C.1 *only Gtr I
|-----------------------|
|-----------------------|
|-5-5----------3--------|Gtr I
|-3-3-5\4-4-5--1--5-4-5-|
|-----3\2-2-3-----3-2-3-|
|-----------------------|

Repeat Riff C.1 (3 time)*Gtrs I and II

Riff C.2
|-------------------------------------|
|-------------------------------------|
|-------------------------------------|Gtr I
|-------------------------------------|
|-----6---5------6----------------6\5-|
|-4-4---4---44-4---4444-6444-7444-4\3-|
| . .   .   .. .   .... .... ....     |
|-------------------------------------|
|-------------------------------------|
|-------------------------------------|Gtr II
|-------------------------------------|
|-----6---5------6--------------------|
|-4-4---4---44-4---4444-6444-7444-4\3-|
  . .   .   .. .   .... .... ....

Repeat Riff C.2 (1 time)
Repeat Riff C.1 (2 times)
Repeat Riff C.2 (2 times)

Riff C.3
|-----------------------------------|
|-----------------------------------|
|-----------------------------------|Gtrs I
|---------------------1------h-p-h--|  & II
|------3----2------3-----3--2-3-2-3-|
|-1111---11---11-1------------------|
  ....   ..   .. .

Repeat Riff C.3 (1 time)
Repeat Riff C.2 (2 times)

Riff C.4
|--------------------------------|
|--------------------------------|
|--------------------------------|Gtr I
|------------------1------h-p-h--| & II
|-----3---2-----3-----3--2-3-2-3-|
|-1-1---1---1-1------------------|

Repeat Riff C.4 (1 time)

Fill 1 *let ring
|------|
|------|
|------|Gtrs I
|-6----|  & II
|-4----|
|------|

D.1
|---------------------|
|---------------------|
|---------------------|Gtrs I
|-6-------------------|  & II
|-4-----6-5-3----3-33-|
|-----4-4-3-1--1-1-11-|
      .        .

Repeat Riff D.1 (3 times)

Riff D.2
|-----------------------------------------|
|-----------------------------------------|
|-----------------------------------------|Gtrs I
|-6---------------------------------------|  & II
|-4-4-4-4-4-6---------3---------3---------|
|-----------4-4-4-3-3-1-1-1-1-1-1-1-1-1-1-|
    . . . .   . . . .   . . . .   . . . .

Riff D.3
|------------------------------------------------|
|------------------------------------------------|
|------------------------------------------------|Gtrs I
|-6----------------------------------------------|  & II
|-4-4-4-44-4-6----------3------------------------|
|------------4-4-4-33-3-1-1-1-1-1--1-1-11-1-11-1-|
    . . .. .   . . .. .   . . . .  . . .. . .. .

Repeat Riff D.2 (1 time)

Riff D.3 subst.
|-------------------------------------|
|-------------------------------------|
|-------------------------------------|Gtrs I
|-6-----------------------------------|  & II
|-4-4-4-44-4-6----------3----------3--|
|------------4-4-4-33-3-1-1-1-1-1--1--|
    . . .. .   . . .. .   . . . .

Solo                                              h p
|----------------------------------------------4-3-4-3-------|
|------5-4--h-p--------------------5-4--h-p------------6-----|
|-6--8-----6-8-6-5------------6--8-----6-8-6-5-----------5-5-|Gtr
|------------------6-5---------------------------------------| I
|----------------------8-------------------------------------|
|------------------------8-8---------------------------------|
|                                                            |
|------------------------------------------------------------|
|------------------------------------------------------------|
|------------------------------------------------------------|Gtr
|-6---------------------------6------------------------------| II
|-4-------6---5--3-------3-33-4-------6---5--3----------3-33-|
|------4--4---3--1-----1-1-11------4--4---3--1--------1-1-11-|
       .               .           .                   .
                                                        *
|-------------------------------------------------h-p--8-----|
|------5-4--h-p--------------------5-4--h-p----9-8-9-8-----5-|
|-6--8-----6-8-6-5------------6--8-----6-8-6-5---------------|Gtr
|------------------6-5---------------------------------------| I
|----------------------8-------------------------------------|
|------------------------8-8---------------------------------|
|                                 *let ring                  |
|------------------------------------------------------------|
|------------------------------------------------------------|
|------------------------------------------------------------|Gtr
|-6---------------------------6---------------*--------------| II
|-4-------6---5--3-------3-33-4-------6---5--3---------------|
|------4--4---3--1-----1-1-11------4--4---3--1---------------|
       .               .           .

Repeat Riff D.2 (1 time)
Repeat Riff D.3 (1 time)
Repeat Riff D.2 (1 time)
Repeat Riff D.3 (1 time)
Repeat Riff A.1 (2 times)
Repeat Riff A.2 (1 time)
Repeat Riff B.1 (1 time)

Riff B.4 subst.
|-------------------------|
|-------------------------|
|-------------------------|Gtrs I
|--------h-p--------------|  & II
|----3"-2-3-2----6"-5"----|
|-1"----------4"-------6"-|

Repeat Riff B.4 (1 time)
Repeat Riff B.3 (2 times)
Repeat Riff B.4 (2 times)

Last chord
|---|
|---|
|---|Gtrs I
|-5-|  & II
|-3-|
|---|


11. Perfection or Vanity

Tunning: E A D G B E

Riff#1. Slow..4/4 timing.(2X)
|----------------------------------------||
|----------------------------------------||
|----------------------------------------||
|5----5----5----5-------------------3----||
|3----3----3----3----3----3----3----1----||
|3----3----3----3----1----1----1----1----||
 S    S    S    S    S    S    S    S

Riff#2A. Slow..Same timing as riff#1.(1X)
|-----------------------------------------------------------------
|-----------------------------------------------------------------
|-----------------------------------------------------------------
|---------------------5----5----5---------------------------------
|3----3----3----3--5--3----3----3----6----3----3----3----3-----5--
|1----1----1----1--3--3----3----3----4----1----1----1----1-----3--
 S    S    S    S     S    S    S    S    S    S    S    S

Riff#2A continued..
|---------------------||
|---------------------||
|---------------------||
|5----5----5----------||
|3----3----3----6--5--||
|3----3----3----4--3--||
 S    S    S

Riff#2B. Slow. Pick moderately on the palm muting.(1X)
|------------------------------------------------------||
|------------------------------------------------------||
|------------------------------------------------------||
|------------------------------------------------------||
|3----3----3----3----6--5------------------------------||
|1----1----1----1----4--3--3-3-3-3-3-3-3-3-3-3-3-3-3-3-||
 S    S    S    S          . . . . . . . . . . . . . .

Repeat all 3 riffs in order for a total of 4 times, on
the 4th time, fades..


12. Devil's Path, re-recording feat. Andy La Roque.
(dont know)

13. Burn in Hell

  Intro                            x2
|-------|----------------------------|------------------------|
|-------|----------------------------|------------------------|
|-------|-*------------------------*-|------------------------|
|-------|-*---------7-5---5-7------*-|--------9-7-5---5-7-----|
|-------|---2--2-2--5-3---3-5--------|--2--2--7-5-3---3-5-----|
|-------|---0--0-0------------3-2----|--0--0--------------3-2-|
                                     |
		            2eme fois|
	|----------------------------|------------------------|
	|-------------------------12-|-8--12-10-12-13-12-15-13|
        |----------------------12----|------------------------|
        |----------------------------|------------------------|
        |----------------------------|------------------------|
        |----------------------------|------------------------|



|-----------------------------------------------------|
|-----------------------------------------------------|
|-----------------------------------------------------|
|-----------------7----5------5----7------------------|
|--2------2----2--5----3------3----5------------------|
|--0------0----0-----------------------3----2---------|
|
|
|----------15-14-15--15-14-15-17-15-17-19-17-15-14----|
|-17-16-17-----------------------------------------17-|
|-----------------------------------------------------|
|-----------------------------------------------------|
|-----------------------------------------------------|
|-----------------------------------------------------|


                            x3
|-----------------------------|----------------------|
|-----------------------------|----------------------|
|-*-------------------------*-|----------------------|
|-*-------------------------*-|----------------------|
|----2--2-2---2--2-2---5-4----|-2--2-2---2--2-2--2-4-|
|----0--0-0---0--0-0---3-2----|-0--0-0---0--0-0--0-2-|



                           x3
|----------------------------|-----------|
|----------------------------|-----------|
|-*------------------------*-|-----------|
|-*------------------------*-|-----------|
|----5--5-5---2--2-2--2-4----|--5--4--3--|
|----3--3-3---0--0-0--0-2----|--3--2--1--|



		            x2
|-----------------------------|-------------------|
|-----------------------------|-------------------|
|-*-------------------------*-|-------------------|
|-*-4-----------5-----------*-|-------------------|
|---2-2-2-2-2-2-3-2-2-2-2-2---|-2-----------------|
|-----0-0-0-0-0---0-0-0-0-0---|-0-----3-2-0-2-3-2-|



|-------------------------|-----------------|
|-------------------------|-----------------|
|-------------------------|-----------------|
|-4-----------5-----------|-----------------|
|-2-2-2-2-2-2-3-2-2-2-2-2-|-2---9-7-5-9-7-5-|
|---0-0-0-0-0---0-0-0-0-0-|-0---7-5-3-7-5-3-|



|-------------------------|------------------|-------------------|
|-------------------------|------------------|-------------------|
|-------------------------|-------------12-9-|--------------12-9-|
|-4-----------5-----------|-2--2---9-12------|---------9-12------|
|-2-2-2-2-2-2-3-2-2-2-2-2-|-0--0-------------|-2-2-2-2-----------|
|---0-0-0-0-0---0-0-0-0-0-|------------------|-0-0-0-0-----------|



|--------------|--------------|-------------------------------|
|--------------|--------------|-------------------------------|
|--------------|--------------|-5-4-2-4-2-----2---------------|
|--------------|-2-------2----|-----------5-4---5-4-2-5-4-----|
|--2-2-2-2---2-|-0-------0----|---------------------------4-2-|
|--0-0-0-0---0-|--------------|-------------------------------|



|-----------------|------------------------------------------|
|-----------------|------------------------------------------|
|-5-4-2-4---------|------------------------------------------|
|---------5-4-2---|-4-----------5-----------4--------------4-|
|---------------2-|-2-2-2-2-2-2-3-2-2-2-2-2-2-2-2-2-2-2--4-2-|
|-----------------|---0-0-0-0-0---0-0-0-0-0---0-0-0-0-0--2---|



|---------------------------|-------------------------|
|---------------------------|-------------------------|
|---------------------------|-------------------------|
|---------------------------|-4-----------5-----------|
|-2-------------------------|-2-2-2-2-2-2-3-2-2-2-2-2-|
|-0-------------3-2-0-2-3-2-|---0-0-0-0-0---0-0-0-0-0-|


|---------------------------|-------------------------|
|---------------------------|-------------------------|
|---------------------------|-------------------------|
|---------------------------|-4-----------5-----------|
|-2-------------9-7-5-9-7-5-|-2-2-2-2-2-2-3-2-2-2-2-2-|
|-0-------------7-5-3-7-5-3-|---0-0-0-0-0---0-0-0-0-0-|


|--------------------------|---------------------|
|--------------------------|---------------------|
|---------------------12-9-|----------------12-9-|
|-2--------2-----9-12------|-----------9-12------|
|-0--------0---------------|-2-2-2-2-------------|
|--------------------------|-0-0-0-0-------------|


|--------------|---------------|-------------------------------|
|--------------|---------------|-------------------------------|
|--------------|---------------|-5-4-2-4-2-----2---------------|
|--------------|-2---2---------|-----------5-4---5-4-2-5-4-----|
|--2-2-2-2---2-|-0---0---------|---------------------------4-2-|
|--0-0-0-0---0-|---------------|-------------------------------|



|-----------------|
|-----------------|
|-5-4-2-4---------|
|---------5-4-2---|
|---------------2-|
|-----------------|


                                            x2
|-----------------------------------------------|
|-----------------------------------------------|
|-*-------------------------------------------*-|
|-*--4-----------5-----------4--------------4-*-|
|----2-2-2-2-2-2-3-2-2-2-2-2-2-2-2-2-2-2--4-2---|
|------0-0-0-0-0---0-0-0-0-0---0-0-0-0-0--2-----|



 Solo
|----------------------------|-------------------------|
|----------------------------|-------------------------|
|----------------------------|-------------------------|
|----------------------------|-4-----------5-----------|
|-2--------------------------|-2-2-2-2-2-2-3-2-2-2-2-2-|
|-0-------------3-2-0-2-3-2--|---0-0-0-0-0---0-0-0-0-0-|
|
|                                                 x8
|----------------------------|----------------------|
|-12-10-8-10-8----8----------|----19-17-15----------|
|--------------11---11-9-7-9-|-*-----------17-16--*-|
|----------------------------|-*------------------*-|
|----------------------------|----------------------|
|----------------------------|----------------------|



|-------------------------------------------|
|-------------------------------------------|
|-------------------------------------------|
|-------------------------------------------|
|-2-----------------------------9-7-5-9-7-5-|
|-0-----------------------------7-5-3-7-5-3-|
|
|
|-17-15-12-17-15-12-------------------------|
|-------------------17-15-12-17-15-12-12----|
|----------------------------------------16-|
|-------------------------------------------|
|-------------------------------------------|
|-------------------------------------------|


|----------------------------------------|
|----------------------------------------|
|----------------------------------------|
|--4--------------------5----------------|
|--2---2-2-2-2-2--------3------2-2-2-2-2-|
|------0-0-0-0-0---------------0-0-0-0-0-|
|
|
|---------------------------------------|
|---------------------------------------|
|-16-14-12-14-14-12-14-16-14-12-9-9-7-9-|
|---------------------------------------|
|---------------------------------------|
|---------------------------------------|



|--------------------------|---------------------------------|
|--------------------------|---------------------------------|
|---------------------12-9-|----------------------------12-9-|
|-2--------2-----9-12------|-----------------------9-12------|
|-0--------0---------------|-2-2-2-2-------------------------|
|--------------------------|-0-0-0-0-------------------------|
|
|
|-------------14--15--17-17|---------------------------------|
|-17-17-17-17--------------|-10-10-8---------10-10-8---------|
|--------------------------|---------9-9-7-9---------9-9-7-9-|
|--------------------------|---------------------------------|
|--------------------------|---------------------------------|
|--------------------------|---------------------------------|



|----------------|----------------|
|----------------|----------------|
|----------------|----------------|
|----------------|-2----2---------|
|--2-2-2-2-----2-|-0----0---------|
|--0-0-0-0-----0-|----------------|
|
|
|----------------|----------------|
|-10-8-10-8-10-8-|-10-8-10-8-10-8-|
|----------------|----------------|
|----------------|----------------|
|----------------|----------------|
|----------------|----------------|


                                                 Batterie
|-------------------------------|-----------------|----|
|-------------------------------|-----------------|----|
|-5-4-2-4-2-----2---------------|-5-4-2-4---------|----|
|-----------5-4---5-4-2-5-4-----|---------5-4-2---|----|
|---------------------------4-2-|---------------2-|----|
|-------------------------------|-----------------|----|
|
|
|-------------------------------|-----------------|----|
|--12------------------------17-|-----------------|----|
|-------------------------------|-----------------|----|
|-------------------------------|-----------------|----|
|-------------------------------|-----------------|----|
|-------------------------------|-----------------|----|


		     moultes fois jusqu'à la fin
|------------------------------------------------|
|------------------------------------------------|
|-*--------------------------------------------*-|
|-*--4-----------5-----------4--------------4--*-|
|----2-2-2-2-2-2-3-2-2-2-2-2-2-2-2-2-2-2--4-2----|
|------0-0-0-0-0---0-0-0-0-0---0-0-0-0-0--2------|
comments
We did not receive enough feedback on this tab! Please rate:
print report bad tab
1 2 3 4 5
2 comments total.
0 reply
Anonymous D wrote on May 14 2005, 12:00 am

Nice to see someone spell the title right...

0 reply
*don-gappo* wrote on January 18 2006, 01:44 pm

frickin quality tab man!
how long it take you to tab it?
u rock!

I want to post or [tab]
guest
You may want to rate the tab now too:
select rating
Please do not post tabs as comments. Select "correction" instead!