Oops, an error
Loading. Please wait.

Spiritual Black Dimensions Tab

1,651 views 1 this week
1 commentread comment
1 2 3 4 5
excellent!
x 1
Autoscroll
+/-
esc
set tempo
stop
Contributor
Hey! There's an official Ultimate Guitar app which is ideal
for learning songs when you're away from computer. Get the app
WARNING: You are trying to view
                                    content from Ultimate-Guitar.com
                                    in an unauthorized application,
                                    which is prohibited.

                                    Please use an official Ultimate
                                    Guitar Tabs application for iPhone,
                                    iPad or Android to access legitimate
                                    chords, guitar, bass, and drum tabs
                                    from Ultimate-Guitar.com database.

                                    Type "ultimate guitar tabs" in Apple
                                    App Store's or Android Market's
                                    search to find the application.
Key______________

.  - palm mute                    /  - slide up to
\  - slide down to                ~  - vibrato
h  - hammer on                    b  - bend
p  - pull off                          Suffixes for bend
ph - pinch harmonic                     f - full bend    h - half bend
*  - see comment                        r - release      t - tap bend
X  - percussion mute                    ~ - vibrato bend
@  - slight palm mute             () - ghost note, sustained note
"  - tremolo pick until next note    Subst. - substitute of a riff

======================================

1. Reptile

Intro with keys ............................................................|last time   |
-----------------------------------------------------------------------------------------|
-----------------------------------------------------------------------------------------|
-----------------------------------------------------------------------------------------|
-----------------------------------------------------------------------------8-8--8--8---|
-----------------------------------------------------------------------------6-6--6--6---|
-----------------------------------------------------------------------------6-6--6--6---|

Riff 1a x 4
-------------------------------|
-------------------------------|
----------------------8--8--8--|
----------------------8--8--8--|
----------------------6--6--6--|
---555555555555555555-6--6--6--|
pm ..................

Riff 1b x 2
-----------------------------------------------------------------------------------------------|
-----------------------------------------------------------------------------------------------|
-----------------------------------------------------------------------------------------------|
-----------------------------------------------------------------------------------------------|
--------------------------7...8...7...6......-----------------------7...8...7...----8...7...---|
---5......0...5...8...5...-------------------5......0...5...8...5...------------6...-----------|
 pm.......................                 pm.......................


Riff 1c x 2
-------------------------------------------------------------------------------6----6---------|
-------------------------------------------------------------------------------7-----7--------|
-------------------------------------------------------------------------------8------8-------|
---7----7-7--7----7-7--7----7-7---888-888-888----7----7-7--7----7-7--7----7-7--8-------8------|
---7----7-7--7----7-7--7----7-7---666-666-666----7----7-7--7----7-7--7----7-7--6--------6-----|
---5----5-5--5----5-5--5----5-5---666-666-666----5----5-5--5----5-5--5----5-5--6---------6----|
                                pm...........                                      | rake |

Riff 2 x 4
----------------------------------------------------------------------------------|
----------------------------------------------------------------------------------|
----------------------------------------------------------------------------------|
---5---5-5-5-5---5-5-5-5---5-5-5-5--5-5-5-5---5-5-5-5---5-5-5-5---5-5-5-5--5-5-5--|
---3---3-3-3-3---3-3-3-5---5-5-5-5--5-5-5-3---3-3-3-3---3-3-3-5---5-5-5-5--5-5-5--|
---3---3-3-3-3---3-3-3-3---3-3-3-3--3-3-3-3---3-3-3-3---3-3-3-5---5-5-5-5--5-5-5--|

-----------------------------------------------|
-----------------------------------------------|
-----------------------------------------------|
---2-----------6------3-------------2----------|
---2-----------6------3-------------2----------|
---0-----------4------1-------------0----------|

Riff 3 x 2
---------------------------------------------------------------------------------------|
---------------------------------------------------------------------------------------|
---------------------------------------------------------------------------------------|
---5-----------------------------------------------------6/8--------------------8\6----|
---3-----------------------------------------------------------------------------------|
---3-----------------------------------1-11111-11111-11114/6--1-11111-11111-11116\4----|
  | let ring out over drums and keys|pm..................     ..................


----------------------------------------------------------------------------|
----------------------------------------------------------------------------|
---------------------8\7--5-----5-----5------8\7----------------------8\7---|
--------------------------5-----5-----5-------------6-----6-----6-----------|
---------------------6\5--3-33333-33333--33336\5----6-----6-----6-----6\5---|
---1-11111-11111-1111-------------------------------4-44444-44444-4444------|
 pm..................       ....  ....   ....         ....  ....  ....


-----------------------------------------------|
-----------------------------------------------|
---4-----4-----4-----4-----4----4----4----4----|
---4-----4-----4-----4-----4----4----4----4----|
---2-22222-22222-22222-22222----2----2----2----|
---------------------------2----2----2----2----|

keyboard break
-----------------------------------------------------------------------------------------|
-----------------------------------------------------------------------------------------|
---7-------------------------------------------------------------------------------------|
---7-------------------------------------------------------------------------6-6--6--6---|
---5-------------------------------------------------------------------------6-6--6--6---|
---5-------------------------------------------------------------------------4-4--4--4---|
   | let ring out over keys ................................................| last time|

Riff 4a x2
---------------------------------------------------------------------------------------|
---------------------------------------------------------------------------------------|
---7--7-7-7-7---7-7-7-7---7-7-7--------------7--7-7-7-7---7-7-7-7---7-7-7--------------|
---7--7-7-7-7---7-7-7-7---7-7-7-4--4--4--4---7--7-7-7-7---7-7-7-7---7-7-7-6--6--6--6---|
---5--5-5-5-5---5-5-5-5---5-5-5-4--4--4--4---5--5-5-5-5---5-5-5-5---5-5-5-6--6--6--6---|
---5--5-5-5-5---5-5-5-5---5-5-5-2--2--2--2---5--5-5-5-5---5-5-5-5---5-5-5-4--4--4--4---|

Riff 4b x2 (same rythme as 4a but tremelo picked)
---5----------------------------9------------5----------------------------11-----------|
---6----------------------------10-----------6----------------------------12-----------|
---7----------------------------11-----------7----------------------------13-----------|
---7----------------------------11-----------7----------------------------13-----------|
---5----------------------------9------------5----------------------------11-----------|
---5----------------------------9------------5----------------------------11-----------|
 |tr...................................................................................|

Riff 4c x2 ( samr rythme as 4a but little bit different in places)

---------------------------------------------------------------------------------------|
---------------------------------------------------------------------------------------|
---7--7-7-7-7---7-7-7-7---7-7-7--------------7--7-7-7-7---7-7-7-7---7-7-7--------------|
---7--7-7-7-7---7-7-7-7---7-7-7--------------7--7-7-7-7---7-7-7-7---7-7-7--------------|
---5--5-5-5-5---5-5-5-5---5-5-5--------------5--5-5-5-5---5-5-5-5---5-5-5--------------|
---5--5-5-5-5---5-5-5-5---5-5-5-222-222-222--5--5-5-5-5---5-5-5-5---5-5-5-444-444-444--|
                              pm...........|                            pm...........|

Riff 2 x 4

Riff 5a x 2 (tremelo picked the whole way)
---7-------------------------3------------------------7----------------------11-----------------|
---8-------------------------4------------------------8----------------------12-----------------|
---9-------------------------5------------------------9----------------------13-----------------|
---9-------------------------5------------------------9----------------------13-----------------|
---7-------------------------3------------------------7----------------------11-----------------|
---7-------------------------3------------------------7----------------------11-----------------|
Tr..............................................................................................|

Riff 5b x 1
--------------------------------------------------------------------------------------------------|
--------------------------------------------------------------------------------------------------|
--------------------------------------------------------------------------------------------------|
--2-----------2-----------2-----------2-----------------------------------------------------------|
--2-----------2-----------2-----------2---------5-6-----------6-----------6-----------6-----------|
--0-0-0-0-0-0-0-0-0-0-0-0-0-0-0-0-0-0-0-0-0-0-0-7-8-8-8-8-8-8-8-8-8-8-8-8-8-8-8-8-8-8-8-8-8-8-8-8-|
    pm.......   .........   .........   .......     .......   .........   ...........   ..........

--------------------------------------------------------------------------------------------------|
--------------------------------------------------------------------------------------------------|
--------------------------------------------------------------------------------------------------|
--2-----------2-----------2-----------2-----------------------------------------------------------|
--2-----------2-----------2-----------2---------1-2-----------2-----------2-----------2-----------|
--0-0-0-0-0-0-0-0-0-0-0-0-0-0-0-0-0-0-0-0-0-0-0-3-4-4-4-4-4-4-4-4-4-4-4-4-4-4-4-4-4-4-4-4-4-4-4-4-|
    pm.......   .........   .........   .......     .......   .........   ...........   ..........

Riff 5c x 1 (same as 5b but picked abit different)

----------------------------------------------------------------------------------------------------|
----------------------------------------------------------------------------------------------------|
----------------------------------------------------------------------------------------------------|
--2-----------2-----------2-----------2-------------------------------------------------------------|
--2-----------2-----------2-----------2---------5-6-----------6-----------6-----------6-------------|
--0-0-0-0-00000-0-0-0-00000-0-0-0-00000-0-0-00007-8-8-8-8-88888-8-8-8-88888-8-8-8-88888-8-8-8-8888--|
    pm........  ..........  ..........  ........     .......    ..........  ..........  ...........

-------------------------------------------------------------------------------------|
-------------------------------------------------------------------------------------|
-------------------------------------------------------------------------------------|
-------2---------------------2-------------------------------------------------------|
-------2---------------------2-------------------2--------------------2--------------|
--0-0000---0-0000-0-0-0-0-0000---0-0000-0-0-4-4444---4-4444-4-4-4-44444---4-4444-4-4-|
pm.....    ..................    ................    .................    ..........


Keyboard stop
........................|
-------------------------------------|
-------------------------------------|
-------------------------------------|
--------------------------8-8-8--8---|
--------------------------6-6-6--6---|
--------------------------6-6-6--6---|

Riff 1a x 4

Riff 1b x 2


2. Behind The Curtains Of Night- Phantasmagoria

Riff 1x2
--------------------------------------------------------------|
--------------------------------------------------------------|
--------------------------------------------------------------|
--2---------------3/6-5-/9-8---2---------------3/6-5----------|
--2-----------5\4-3/6-5--------2-----------5\4-3/6-5-/5-5-----|
--0-00000000--7\6-1/4-3-/7-6---0-00000000--7\6-1/4-3-/7-6-----|
    pm......                     pm......
Riff 2x3
----------------------------------------------------------------|
----------------------------------------------------------------|
----------------------------------------------------------------|
--2--------------3/6-5-/9-9\8---2-------------------------------|
--2----------5\4-3/6-5----------2----------5\4-3/6-5-/5-5\5-----|
--0-0-0-0-0--7\6-1/4-3-/7-7\6---0-0-0-0-0--7\6-1/4-3-/7-7\6-----|
    pm.....                       pm.....

Riff 3 x2

------------------------------------------|two giutars|---------------------|
----------------------------------------------------------------------------|
----------------------------------------------12-----9----------------------|
------2-----2-----2--9\7-7/10------2-----2----------------------------------|
------2-----2-----2--7\5-5/8-------2-----2----10-----7----------------------|
--000-0-000-0-000-0------------000-0-000-0-333-3-111-1-000-0-000-0-000-0----|
pm...   ...   ...              ...   ...   ...   ...   ...   ...
----------------------------------------------|
----------------------------------------------|
--------------------------------|two guitars--|
--9\7-7/10-101010-10--101010-10---------------|
--7\5-7/8--8-8-8--8---8-8-8--8--111-1-222-2---|
--------------------------------333-3-444-4---|
pm         ....       ....      ...   ...

Solo with riff 2x2
--------------------------------------------------------------------------------------------------|
---------------------------------D----------------------------------------------------------------|
--2p0h2p0h2p0h4p0h4p0h4p0h5p0h5p-0----5 harmonic--------------------------------------------------|
--------------------------------------------------------------------------------------------------|
------------------------------------------------------------------D-------------------------------|
------------------------------------------------------------------0-----------------5 Harmonic----|
 |use bar up and down quickly  |then drop and pull up on Harmonic|drop bar and pull up on Harmonic|

 T           T  T            T/          T/           T           T  T            T/          T/
19-12h15p12-19-19-12h15p12--19/24-15p12-19/24-15p12--20-12h15p12-20-20-12h15p12--20/24-15p12-20/24-15p12-|
---------------------------------------------------------------------------------------------------------|
---------------------------------------------------------------------------------------------------------|
---------------------------------------------------------------------------------------------------------|
---------------------------------------------------------------------------------------------------------|
---------------------------------------------------------------------------------------------------------|

-12-16-13-12h13p12-----------------------------------------------------------------------|
-------------------15-13-12h13p12--------------------------------------------------------|
----------------------------------14-13-13h14p13-----------------------------------------|
-------------------------------------------------15-14-12h14p12--------------------------|
----------------------------------------------------------------15-14-12h14p12\----------|
-----------------------------------------------------------------------------------------|


Riff 4x2
-------------------------------------|
-------------------------------------|
-------------------------------------|
--2----6-----5-----2-----2--3----3---|
--2----6-----5-----2-----2--3----3---|
--0----4-----3-----0-----0--1----1---|
                       pm..........

Riff 4bx2
--------------------------------------------------------------------|
--------------------------------------------------------------------|
--------------------------------------------------------------------|
--------------------------------------------------------------------|
--------------------------------------------------------------------|
--00000000000000---44444444444---33333333333333--0000000000001111---|

Riff 5 (ALMOST exactly like riff 3 but not quite the rythme on the E is actually backwards)
---------------------------------------------------------------------------|
---------------------------------------------------------------------------|
---------------------------------------------------------------------------|
-------------------9/7--10-------------------------------------------------|
-------------------7/5--8--------------------------------------------------|
-0-000-0-000-0-000-----------0-000-0-000-333-3-111-1-0-000-0-000-0-000-----|
pm ...   ...   ...             ...   ... ...   ...     ...   ...   ...

----------------------------------------------|
----------------------------------------------|
--------------------------------|two guitars--|
--9\7-7/10-101010-10--101010-10---------------|
--7\5-7/8--8-8-8--8---8-8-8--8--111-1-222-2---|
--------------------------------333-3-444-4---|
pm         ....       ....      ...   ...

Riff 6x2
--------------6-----------------------------------------6--------------------------|
---------------7-----------------------------------------7-------------------------|
------------8---8-------------------------------------8---8-------------8--11-12---|
--2--2-2----8----8-----2--2-2---8-11-12-----2--2-2----8----8----2--2-2-------------|
--2--2-2----6-----6----2--2-2---------------2--2-2----6-----6---2--2-2--6--9--10---|
--0--0-0----6------6---0--0-0---6-9--10-----0--0-0-----------6--0--0-0-------------|
              |rake|                                    |rake|
Riff 7x2
----------------------------------------------------------------------------------------|
----------------------------------------------------------------------------------------|
----------------------------------------------------------------------------------------|
----------------------------------------------------------------------------------------|
------------666666666------------4/7h8--7\4---------------------------------6/9h10-9\6--|
--000000000-----------000000000--6/9h10-9\6--000000000-666666666-000000000--6/9h10-9\6--|
  pm............................|two guitars|pm........................... |two guitars|


3. Dreamside Dominions

Riff 1:
|---------------------------------------------------------------------------------|
|---------------------------------------------------------------------------------|
|---------------------------------------------------------------------------------|
|-----------------------------------------------------7-7777-7-7777-7-7777-7-7777-|
|--7-7777-7-7777-7-7777-7-7777--3-3333-3-3333-3-3333--5-5555-5-5555-5-5555-5-5555-|
|--5-5555-5-5555-5-5555-5-5555--1-1111-1-1111-1-1111------------------------------|

      -------------------------------------------|
      -------------------------------------------|
      -------------------------------------------|
      --9-9999-9-9999-9-9999-9-9999--------------|
      --7-7777-7-7777-7-7777-7-7777--------------|
      -------------------------------------------|


Riff 2:
|-----------------------------------------------------------|
|-----------------------------------------------------------|
|-----------------------------------------------------------|
|-5-5555-5-5555-5-5555-5-5555-------------------------------|
|-3-3333-3-3333-3-3333-3-3333--6-6666-6-6666-6-6666-6-6666--|
|------------------------------4-4444-4-4444-4-4444-4-4444--|


Riff 1 again...
Riff 2 again...


Riff 3:
|----------------------------|
|----------------------------|
|----------------------------|
|-5--4--5--------5--4--9--3--|
|-3--2--3--6--5--3--2--7--1--|
|----------4--3--------------|
  l  l  l  l  l  l  l  l  l

Riff 4:
|-----------------------------------------------------------------|
|-----------------------------------------------------------------|
|-----------------------------------------------------------------|
|-5-55-5--4-44-4--5-55-5----------5-55-5--4-44-4--9-99-9--3-33-3--|
|-3-33-3--2-22-2--3-33-3--666666--3-33-3--2-22-2--7-77-7--1-11-1--|
|-------------------------444444----------------------------------|
    ..      ..      ..    ......    ..      ..      ..      ..


Riff 5:
|------------------------------------------------------|
|------------------------------------------------------|
|------------------------------------------------------|
|-----------6------------6-----------6--666666-222222--|
|-------7-6----------7-6---------7-6-------------------|
|-4-444--------4-444-------4-444-----------------------|
    ... . .

4. United In Unhallowed Grace

Standard tuning

Riff 1: x4
e|--------------------------------------|
B|--------------------------------------|
G|-----9-8-----------5-----5------------|Gtrs I
D|-5---9-8-5-5-5-555-5--6--5--4-4-4-444-|  & II
A|-3---7-6-3-3-3-333-3--6--3--2-2-2-222-|
E|-3-------3-3-3-333----4-----2-2-2-222-|
             . . ...            . . ...

Riff 2a: x2 (with slight palm mute where shown)
e|--------------------------------------------|
B|--------------------------------------------|
G|--------------------------------------------|Gtrs I
D|-2----------------5-5-2----------------8-8--|  & II
A|-2----------------5-5-2----------------6-6--|
E|-0-00000044444444-3-3-0-00000044444444-6-6--|
     ..............       ..............

Riff 2b x1
e|-----------------------------------------------|
B|-----------------------------------------------|
G|-4---------------------------------------------|Gtrs I
D|-2-------6--------------2-------6--------------|  & II
A|-2-------6--------6\(5)-2-------6--------6\(5)-|
E|-0-------4--------4\(3)-0-------4--------4\(3)-|

Riff 2c: x1
e|----------------------------------------------------------|
B|----------------------------------------------------------|
G|----------------------------------------------------------|Gtrs I
D|-2------2------2------2------6------6------6------6\(5)-5-|  & II
A|-2--2-2-2--2-2-2--2-2-2--2-2-6--6-6-6--6-6-6--6-6-6\(5)-5-|
E|-0--0-0-0--0-0-0--0-0-0--0-0-4--4-4-4--4-4-4--4-4-4\(3)-3-|
      . .    . .    . .    . .    . .    . .    . .

Riff 2d: x1
e|--------------------------------------------------------|
B|--------------------------------------------------------|
G|--------------------------------------------------------|Gtrs I
D|-2------2------2------2------6------6------6------8--8--|  & II
A|-2--2-2-2--2-2-2--2-2-2--2-2-6--6-6-6--6-6-6--6-6-6--6--|
E|-0--0-0-0--0-0-0--0-0-0--0-0-4--4-4-4--4-4-4--4-4-6--6--|
      . .    . .    . .    . .    . .    . .    . .
Riff 1 x 2 Gtrs I & II
Riff 1 x 2 Gtrs I & II (tremelo picked)

Riff 3a: x 3
e|----------------------------------------------------------|
B|----------------------------------------------------------|
G|----------------------------------------------------------|
D|-5-555-5-555-6-666-3-333-5-555-5-555-3-333-6--5-3p2h3p2p0-|Gtr I
A|-3-333-5-555-6-666-3-333-3-333-5-555-3-333-6--7-5p3h5p3p0-|Gtr II
E|-3-333-3-333-4-444-1-111-3-333-3-333-1-111-4--------------|

Riff 3b: x 1
e|---------------------------------------------------------------|
B|---------------------------------------------------------------|
G|---------------------------------------------------------------|Gtrs I
D|-5-555-5-555-6-666-3-333-5-----5-------------------------------|  & II
A|-3-333-5-555-6-666-3-333-3-3-335-5-553-3-3-3-3-3-3-6-6-6-6-6-6-|
E|-3-333-3-333-4-444-1-111-3-3-333-3-331-1-1-1-1-1-1-4-4-4-4-4-4-|
                             . ..  . ... . . . . . . . . . . . .

Riff 3c: x 3
e|--------------------------------------------------|
B|--------------------------------------------------|
G|--------------------------------------------------|Gtrs I
D|-5-5-55------------------5-5-55-------------------|  & II
A|-3-3-335-5-556-6-663-3-333-3-335-5-553-3-336-6-66-|
E|-3-3-333-3-334-4-441-1-113-3-333-3-331-1-114-4-44-|
     . ..  . ..  . ..  . ..  . ..  . ..  . ..  . ..

Riff 3d: x 1
e|---------------------------------------------------------------|
B|---------------------------------------------------------------|
G|---------------------------------------------------------------|Gtrs I
D|-5-5-55------------------5-5-55--------------------------------|  & II
A|-3-3-335-5-556-6-663-3-333-3-335-5-553-3-3-3-3-3-3-6-6-6-6-6-6-|
E|-3-3-333-3-334-4-441-1-113-3-333-3-331-1-1-1-1-1-1-4-4-4-4-4-4-|
     . ..  . ..  . ..  . ..  . ..  . ... . . . . . . . . . . . .

Riff 4a: x 2
e|-----------------------------------------------------|
B|-----------------------------------------------------|
G|-----------------------------------------------------|Gtrs I
D|-2---------------------6-5-2---------------------6-5-|  & II
A|-2-------------2/(3)~~-6-5-2-------------3/(4)~~-6-5-|
E|-0---------------------4-3-0---------------------4-3-|
                         . .                       . .

Riff 4b: x 2
e|-----------------------------------------------------|
B|-----------------------------------------------------|
G|-----------------------------------------------------|Gtrs I
D|-2------2--------------6-5-2------2--------------6-5-|  & II
A|-2------2------2/(3)~~-6-5-2------2------3/(4)~~-6-5-|
E|-0--0-0-0--0-0---------4-3-0--0-0-0--0-0---------4-3-|
      . .    . .         . .    . .    . .         . .

Fill 1:
e|----------------|
B|----------------|
G|----------------|Gtrs I
D|------------6-5-|  & II
A|-~~~~~~~\\\-6-5-|
E|-~~~~~~~\\\-4-3-|

Riff 5a: x1 (tremelo picked)                  Riff 5b: x1 (tremelo picked)
e|-------------------------------------------|-----------------------------------------------|
B|-------------------------------------------|-----------------------------------------------|
G|------------------------------------<11*>~-|-----------------------------------------------|Gtr I
D|---------------------------6-5---4-5-------|---------------------------6-5---4---2h4p2h4p2-|
A|-7-6-7-/10-9-7-6h7p6h7p6-7-----6-----------|-7-6-7-/10-9-7-6h7p6h7p6-7-----6---5-----------|
E|-------------------------------------------|-----------------------------------------------|
 |"""""""""""""""          """""""""""        """"""""""""""          """"""""""""           |
 |                                                                                           |
e|-------------------------------------------|-----------------------------------------------|
B|-------------------------------------------|-----------------------------------------------|
G|-------------------------------------------|-----------------------------------------------|
D|-2----------------5-5-2----------------8-8-|-2----------------5-5-2----------------8-8-----|Gtr II
A|-2----------------5-5-2----------------6-6-|-2----------------5-5-2----------------6-6-----|
E|-0-00000044444444-3-3-0-00000044444444-6-6-|-0-00000044444444-3-3-0-00000044444444-6-6-----|
     ..............       ..............         ..............       ..............


Riff 5a: x 1 /w Riff 2a
Riff 2b: x 1 Gtrs I & II
Riff 2c: x 1 Gtrs I & II
Riff 2d: x 1 Gtrs I & II

Riff 6a: x 2 (triplet feel)
e|--------------------------------------|
B|--------------------------------------|
G|----------7\(6)-----9-----------------|Gtr I
D|-2--------7\(6)-6-3-9-------------3-6-|
A|-2--------5\(4)-6-3-7---------4h5-3-6-|
E|-0-000000-------4-1----000000-----1-4-|
 |   ......              ......         |
 |                                      |
e|--------------------------------------|
B|--------------------------------------|
G|--------------------------------------|
D|-2--------------6-3---------------3-6-|Gtr II
A|-2--------------6-3---------------3-6-|
E|-0--------------4-1---------------1-4-|

Riff 6b: x 2 (triplet feel)
e|--------------------------------------|
B|--------------------------------------|
G|----------7\(6)-----------------------|Gtrs I
D|-2--------7\(6)-6-3-2-------------3-6-|  & II
A|-2--------5\(4)-6-3-2---------4h5-3-6-|
E|-0-000000-------4-1-0--000000-----1-4-|
     ......              ......

Riff 6c: x 4
e|-------------------------------------------|
B|-------------------------------------------|
G|-------------7\(6)-------------------------|Gtrs I
D|-------------7\(6)-6-3-----------------3-6-|  & II
A|-2-2-2-2-2-2-5\(4)-6-3-2-2-2-2-2-2-4h5-3-6-|
E|-0-0-0-0-0-0-------4-1-0-0-0-0-0-0-----1-4-|
   . . . . . .           . . . . . .

Riff 6c: x 2
e|-------------------------------------------|
B|-------------------------------------------|
G|-------------7\(6)-------------------------|Gtrs I
D|-------------7\(6)-6-3-----------------3-6-|  & II
A|-------------5\(4)-6-3-------------4h5-3-6-|
E|-000-000-000-------4-1-000-000-000-----1-4-|
   ... ... ...           ... ... ...

Riff 5b: x1 Gtr I /w Riff 2a Gtr II

Riff 5c: x1 (tremelo picked) /w Riff 2a Gtr II
e|-------------------------------------------|
B|-------------------------------------------|
G|-------------------------------------<8*>~-|Gtr I
D|---------------------------6-5---4-5-------|
A|-7-6-7-/10-9-7-6h7p6h7p6-7-----6-----------|
E|-------------------------------------------|

Riff 5b: x1 Gtr I /w Riff 2a Gtr II

Riff 5d: x1 Gtr I (tremelo picked) /w Riff 2a Gtr II
e|--------------------------------------------|
B|--------------------------------------------|
G|-------------------------------------<12*>~-|Gtr I
D|---------------------------6-5---4-5--------|
A|-7-6-7-/10-9-7-6h7p6h7p6-7-----6------------|
E|--------------------------------------------|

Riff 2a: x 4 Gtrs I & II

Song end:
e|-------|
B|-------|
G|-------|Gtrs I
D|-8--9\-|  & II
A|-8--9\-|
E|-6--7\-|


5. The Promised Future Aeons

Intro...


Riff 1:
|---------------------------------------------------------|
|---------------------------------------------------------|
|---------------------------------------------------------|
|---------------------------------------------------------|
|-4-4444-4-4444-4-4444-4-4444--2-2222-2-2222--4-4444-5-4--|
|-2-2222-2-2222-2-2222-2-2222--2-2222-2-2222--4-4444-5-4--|

Riff 2:
|----------------|
|----------------|
|----------------|
|-5-----5--------|
|-3--6--3--6--5--|
|----4-----4--3--|
           .

Riff 3:
|----------------------------------------------------|
|----------------------------------------------------|
|----------------------------------------------------|
|-5-5555-5-5555-----------------5-5555-5-5555--------|
|-3-3333-3-3333--6-6666-6-6666--3-3333-3-3333--6--5--|
|----------------4-4444-4-4444-----------------4--3--|
    ....   ....    ....   ....    ....   ....  .  l


Riff 4:
|-------------------------------------|
|-------------------------------------|
|-------------------------------------|
|-------------------------------------|
|-3---7-7777--6-6666--7-7777--6-6666--|
|-3---5-5555--4-4444--5-5555--4-4444--|
  l

Riff 5:
|----------------------------------------------------------------|
|----------------------------------------------------------------|
|----------------------------------------------------------------|
|-121212121212121212121212-777777777777-101010101010101010101010-|
|-101010101010101010101010-555555555555-8-8-8-8-8-8-8-8-8-8-8-8--|
|----------------------------------------------------------------|

        ----------------|
        ----------------|
        ----------------|
        ---6-7-6-6-7-6--|
        ---4-5-4-4-5-4--|
        ----------------|


Riff 6:
|--------------------------|
|--------------------------|
|--------------------------|
|-----4--7--3-----4--------|
|--2--2--5--1--2--2--3--6--|
|--0-----------0-----3--4--|
   l  l  l  l  l  l  l  l

6. The Blazing Monoliths Of Defiance

Riff 1:
|------------------------------------------------------------|
|------------------------------------------------------------|
|------------------------5-----------------------------------|
|---------------666-777----7----------------6h7p6--10---7-6--|
|---------7h8p7----------------------7h8p7-------------------|
|-555555----------------------55555--------------------------|


  ---------------------------------------------------------|
  ---------------------------------------------------------|
  ------------------------2--------------------------------|
  ----------------333-444---4---------------3h4p3--7--4-3--|
  ---------4h5p4----------------------4h5p4----------------|
  --22222----------------------22222-----------------------|


Riff 2: "With hearts of midnight..."
|----------------------------------------|
|----------------------------------------|
|----------------------------------------|
|----------------------------------------|
|-5--8-7--11--5--8-7--11--11-1010101010--|
|-3--6-5--9---3--6-5--9---9--8-8-8-8-8---|
          l           l      . . . . .


Riff 1 again
Riff 2 again

Riff 3:
|------------------------------------------------------------------------|
|------------------------------------------------------------------------|
|------------------------------------------------------------------------|
|-8/9------------------------------------8/9--------------5-5555-5/8-88--|
|-6/7--------------777777-666666-777777--6/7--------------3-3333-3/6-66--|
|-----000000000000---------------------------000000000000----------------|
      ............                           ............   ....


Riff 4:
|-----------------------------------------------------------------------|
|-----------------------------------------------------------------------|
|-----------------------------------------------------------------------|
|-8/9-------9------9-9999--8-8888--9---8/9-------9------5-5555-5--8-8---|
|-6/7-------7------7-7777--6-6666--7---6/7-------7------3-3333-3--6-6---|
|------0000---0000--------------------------0000---0000-----------------|
       ....   ....   ....    ....           ....   ....   ....


Riff 5:
|-----------------------------------------------------------|
|-----------------------------------------------------------|
|-----------------------------------------------------------|
|--------------------------------------------7777-66666666--|
|-777777-888888-6666-7777777-77777777-888888----------------|
|-----------------------------------------------------------|


Riff 6:
|-------------------------|
|-------------------------|
|-------------------------|
|-9-10-8--9---9-10-14-13--|
|-7-8--6--7---7-8--12-11--|
|-------------------------|
          l           l


Riff 7:
|------------------------------------------------------------------------|
|------------------------------------------------------------------------|
|------------------------------------------------------------------------|
|-999999-101010101010-88-999999------------999--999999-1010101010-14-13--|
|-777777-8-8-8-8-8-8--66-777777-777-101010------777777-8-8-8-8-8--12-11--|
|------------------------------------------------------------------------|


        ----------------------|
        ----------------------|
        ----------------------|
        ----------------------|
        --8888-11111111-8888--|
        ----------------------|

Riff 6 again
Riff 4 again


Fill 1:
|---------------------|
|---------------------|
|---------------------|
|---------------------|
|-5--5-6--6--7--6--3--|
|-5--5-6--6--7--6--3--|
  m  m m     .  .


Riff 8:
|-------------------|
|-------------------|
|-------------------|
|-------------------|
|-5--5-6--6--7-6-3--|
|-5--5-6--6--7-6-3--|


Riff 9:
|-------------------------------------------------|
|-------------------------------------------------|
|-------------------------------------------------|
|-------------------------------------------------|
|-5-5555-5--6-6666-6--7-6-3--3-33-3-33-3-33-3-33--|
|-5-5555-5--6-6666-6--7-6-3--3-33-3-33-3-33-3-33--|
    ....      ....             ..   ..   ..   ..


Riff 10:
|---------------------------------------|
|---------------------------------------|
|---------------------------------------|
|---------------------------------------|
|-4-44444444--4--5-55555555--5---6-5-2--|
|-5-55555555--5--6-66666666--6---7-6-3--|

Riff 2 again
Riff 1 again
Riff 2 again

7. The Insight & The Catharsis

Intro Chords
-------------------------------------------|
-------------------------------------------|
-------------------------------------------|
--7---6----7-6\7/6-----7---6----7--6\7/6---|
--7---6----7-6\7/6-----7---6----7--6\7/6---|
--5---4----5-4\5/4-----5---4----5--4\5/4---|

Riff 1ax4 (guitar 1)
---------------------------------|
---------------------------------|
---------------------------------|
---------------------------------|
--3-333-3-333-2-222-2-222--------|
--3-333-3-333-2-222-2-222--------|
--1-111-1-111-0-000-0-000--------|
pm  ...   ...   ...   ...

Riff 1ax4 (guitar 2) played together with riff above.
---------------------------------|
---------------------------------|
---------------------------------|
----- ---333333--222222----------|
--111111-------- ------000000----|
pm...... ...... ...... ......


Riff 1bx2  (Guitar 1)
--------------------------------|
--------------------------------|
--------------------------------|
--------------------------------|
----2h3p2-2--------2h3p2-6------|
--5---------4----5---------4----|

Riff 1bx2  (guitar 2) played with the one above.
--------------------------------|
--------------------------------|
--------------------------------|
--------------------------------|
----------6--------------2------|
--5-5h7h8---7----5-5h7h8---4----|

Riff 1a x4 again

Riff 2a x4 (guitar 1)
-------------------|
-------------------|
-------------------|
---777777--333333--|
---777777--333333--|
---555555--111111--|

Riff 2a x4 (guitar 2)play with above riff

---12-12-121212---8--8--8-8-8--|
---13-13-131313---9--9--9-9-9--|
---14-14-141414--10-10-101010--|
---14-14-141414--10-10-101010--|
---12-12-121212---8--8--8-8-8--|
---12-12-121212---8--8--8-8-8--|

Riff 2b x4 (guitar 1)
---------------------|
---------------------|
---------------------|
----777777--666666---|
----555555--666666---|
----555555--444444---|

Riff 2b x4 (guitar 2) play with riff above.

----7-7-777--11-11-111111--|
----8-8-888--12-12-121212--|
----7-7-777--13-13-131313--|
----7-7-777--13-13-131313--|
----5-5-555--11-11-111111--|
----5-5-555--11-11-111111--|

Keyboard Interlude

Fill 1 (Just the part of the next Riff,then they start Riff 3 in the middle.Listen to the song.)
----------------------|
----------------------|
----------------------|
---3333333333333333---|
---3333333333333333---|
---1111111111111111---|

Riff 3 ( guitar 1) very simple
----------------------------------------------------------------------|
----------------------------------------------------------------------|
----------------------------------------------------------------------|
--4....................-3..........-4..................-5.........----|
--4....................-3..........-4..................-3.........----|
--2....................-1..........-2..................-3.........----|

Riff 3 ( guitar 2) played with above.
---------------------------------------------------------------------|
---------------------------------------------------------------------|
---------------------------------------------------------------------|
----------------7..9..6...........----------------7------------------|.9..5...........
-------------4..-------------------------------4..-------------------|
--2....4..5..-----------------------2....4..5..----------------------|

Riff 4x2
---------------------------------------------------------------------|
---------------------------------------------------------------------|
---------------------------------------------------------------------|
--4---------7-6-6/7\6--3------------------3/4--------7-6-6/7\6--5----|
--4--------------------3------------------3/4-------------------3----|
--2-222222--5-4-4/5\4--1-1...triplets...--1/2-222222-5-4-4/5\4--3----|
pm  ......               ...............      ......

The Chords that over the singing part (There's some palm muting shit going on to , but It's on the same chords)
-------------------------------------|
-------------------------------------|
-------------------------------------|
---5--6---5---6-----2---6---2---6----|
---3--6---5---6-----2---6---2---6----|
---3--4---3---4-----0---4---0---4----|

Riff 5a x2(Watch the palm mutes)
--------------------------------------------|
--------------------------------------------|
--------------------------------------------|
--22-2-33-3--22-2-33-3--22-2-33-3--8--8-5---|
--22-2-33-3--22-2-33-3--22-2-33-3--6--6-5---|
--00-0-11-1--00-0-11-1--00-0-11-1--6--6-3---|

pm..   ..    ..   ..    ..   ..       .

Riff 5b x2(Variation of the above)
--------------------------------------------------|
--------------------------------------------------|
--------------------------------------------------|
--22-2-3-3333--22-2-3-3333--22-2-3-3333--8--8-5---|
--22-2-3-3333--22-2-3-3333--22-2-3-3333--6--6-5---|
--00-0-1-1111--00-0-1-1111--00-0-1-1111--6--6-3---|
pm..   . ....  ..   . ....  ..   . ....     .

Solo 1 (with the riff with the chords with the clean vocals over it.)
------------------------------------------------------------------------|
----------13------------------------------------------------------------|
------12----------------------------------------------------------------|
--/13--------10-12-12h13p12-13-12h13p12\10-9-10-9h10p9\6-5-6-5h6p5------|
-------------------------------------------------------------------6-7--|
------------------------------------------------------------------------|

---------------------------11h15p11-----------------11--16-11h16p11------------------|
------------------------13----------13-----------13-----------------12-11------------|
---------------12----12----------------12----12---------------------------13-12------|
---------10-13----13----------------------13-----------------------------------------|
------10-----------------------------------------------------------------------------|
-8-11-------------|....sweep picking..................|------------------------------|

--------------------------------------15h16h18/19-15h19p15------------------------|
-----------------------------14h16h17----------------------17---------------------|
--12h13h15-12h13h15-13h15h16----------------------------------16---------------16-|
-----------------------------------------------------------------17--------17-----|
--------------------------------------------------------------------19--19--------|
-------------------------------------------------|..sweep picking.....|-----------|

-------------------7-11-7h11p7------------------------------------------------|
-17/19\17--------9-------------12-10-9----------------------------------------|
---------------8--------------------------------------------------------------|
-------------9----------------------------------------9h10h12---------9h10h12-|
----------11---------------------------9h10h12-9h1012---------9h10h12---------|
------------------------------------------------------------------------------|

--------------------------------------12h13h16p13p12-------------------------------|
-----------12h13h15----------12h13h15----------------15-13-12h13p12----------------|
--11h12h14----------11h12h14----------------------------------------14-12-11h12p11-|
-----------------------------------------------------------------------------------|
-----------------------------------------------------------------------------------|
-----------------------------------------------------------------------------------|

----------------------------------------------------|
----------------------------------------------------|
-----------------------------p0---------5-Harmonic--|
14 12 10-9h10p--------------------------------------|
---------------12-10-9h10p9-------------------------|
----------------------------------------------------|pull off g string drop bar when at the bottom
                              of dive hit the 5th fret harmonic and then pull
                              bar back up and let it screem dudes.|

Back to Riff 5a and b and then yet another  keyboard interlude.

Fill 2 (with two guitars harmonized)

----------------------|
----------------------|
----/8-10--8h10p-8\5--|
----------------------|
---/10-11-10h11p10\7--|
----------------------|

Riff 6 x4 (guitar 1)
---------------------------------------------------------------------------|
---------------------------------------------------------------------------|
---------------------------------------------------------------------------|
--3----------------5-----------------8-----------------5-------------------|
--3----------------6-----------------8-----------------3-------------------|
--1----------------3-----------------6-----------------3------fill 2 now---|


Riff 6 x4 (guitar 2) with riff above
----------------------------------------------------------------------------|
----------------------------------------------------------------------------|
----------------------------------------------------------------------------|
----------------------------------------------------------------------------|
----------------------------------------------------------------------------|
--1----1/3-4-3-1-1/3----3/4-6-4-3-3/6-------------6-6/8------fill2 now------|
Do Fill 2 at the end.

Solo 2 with riff 6x4 ( guitar 1)
---------8-13-8----------------11---6----------------------------------------|
-----8-9--------9-8----9-8---8----8-----8---------------------------11/13\11-|
--10----------------10----------------8---8----------------10----10----------|
--------------------------------------------8-----------11----11-------------|
----------------------------------------------10-6---13----------------------|
-----------------------------------------------------------------------------|

-----------20-15h20p15----15\12-15p12-----------------------------------------------|
-----------------------17-------------13--------------------------------------------|
-10----10--------------------------------12\9-12p9-----------------------5-5-5------|
----11---------------------------------------------10----------------3-6------------|
------------------------------------------------------10-7---------3----------------|
-----------------------------------------------------------8---1-4------------------|
|bend up a quarter note and down|

-----------11-------------------------------9h13p9----------------------9h13/18-13h18p13-|
--------------11-----------------------------------11----------------11------------------|
--5/8------------12----------------------10-----------10----------10---------------------|
------8-------------13-8------------8-11-----------------11----11------------------------|
--------10---------------10-------8-------------------------13---------------------------|
------------------------------6-9--------------------------------------------------------|
          |..sweeped.......|   |............sweep picked...............|


----13h18p13h18p13h18p----13h18p13------------------12h15p12-------------|
-14--------------------14------------------------------------13----------|
-------------------------------------------------12-------------12-------|
-------------------------------------------10-14-------------------14----|
----------------------------------------10----------------------------15-|
-----------------------------------8-12----------------------------------|
                                   |.............Sweeped Picked..........|


Riff 7 x2 (it has a weird groove to it but this is right(it has heavey chords behind it and
they are just E then b to b flat just listen too it)

---------------------------------------------------------------------   -----------------|
---------------------------------------------------------------------   -----------------|
---------------------------------------------------------------------   -----------------|
-------9-----------7------------9------------9-7---------------------   -9h10p9h10p9h10p-|
---------10-9--------10-9--6-7----10-9----------10-9-7-6h7p6h7p6h7p--   -----------------|
---0-----------7-6-----------------------7-6------------first-time---   --second-time----|

Riff 8 x2
--------------------------------------------------------------------------------------------|
--------------------------------------------------------------------------------------------|
--------------------------------------------------------------------------------------------|
-----------------------------------------------------------------------9-7------------------|
------- 10...-9...--------    9...--7...--6...--------10...-9...-----------10-9-7-6h7p6h7p--|
--0...-------------7...-6...---------------------0...------------7..-6----------------------|first time

  ---------------|
  ---------------|
  ---------------|
  9h10p9h10p9h10p
  ---------------
  second time----

Back to Riff 7 and then the start.


Keyboard fill on the guitar.
------------------------------------------------------------------------|
------------------------------------------------------------------------|
---------------------------------------------------------12--11---------|
-----4--5-5--4-----------5-4---------4--5-5--4----10--13---------12-----|
--5------------6--3---6------5--3--5-----------6------------------------|
------------------------------------------------------------------------|

Fill 3
-----------------|
-----------------|
-----------------|
----7-777-7--5---|
----5-555-5--3---|
----5-555-5--3---|

Riff 9 x2
-------------------------------|
-------------------------------|
-------------------------------|
---7----5----5----7-777-7--5---|
---5----5----3----5-555-5--3---|
---5----3----3----5-555-5--3---|

Riff 10 x2
-------------------------------|
-------------------------------|
-------------------------------|
---7----5----5----7-------5----|
---5----5----3----5-------3----|
---5----3----3----5-------3----|

Riff 11 x2
-------------------------------------------------------------------|
-------------------------------------------------------------------|
-------------------------------------------------------------------|
--7-77-7-77-7777---5-55-5-55-5555--7-77-7-77-7777--3-33-3-33-3333--|
--5-55-5-55-5555---3-33-3-33-3333--5-55-5-55-5555--3-33-3-33-3333--|
--5-55-5-55-5555---3-33-3-33-3333--5-55-5-55-5555--1-11-1-11-1111--|
pm  ..   .. ....     ..   .. ....    ..   .. ....    ..   .. ....

Then back to Riff 9

Last chord
------|
------|
-/7---
-/7---
-/5---
-/5----


8. Grotesquery Conceiled

"...In the shadows of my gallow,
I'd rather absent the hallow..."

Fill 1:
|-----------------------------|
|-----------------------------|
|-----------------------------|
|-----------------------------|
|--3------7-6---3-3-3-3--7-6--|
|--1------5-4---1-1-1-1--5-4--|
   m            m m m m


Riff 1:
|---------------------------------|
|---------------------------------|
|---------------------------------|
|---------------------------------|
|--3-3333-3-3333-3-3333-3-3--7-6--|
|--1-1111-1-1111-1-1111-1-1--5-4--|
     ....   ....   ....   .


Riff 2:
|--------|
|--------|
|--------|
|-----5--|
|--3--3--|
|--1-----|
   l  l


Riff 3:
|---------------------------------------|
|---------------------------------------|
|---------------------------------------|
|---------------------------------------|
|--5555555555555555-888888888888888-----|
|---------------------------------------|

 -----------------------------------------|
 -----------------------------------------|
 -----------------------------------------|
 --6666666666666666-44444444--------------|
 ----------------------------66666-44444--|
 -----------------------------------------|

Riff 4:
|----------------------|
|----------------------|
|----------------------|
|--7--10-13--10--8--6--|
|--5--8--11--9---6--4--|
|----------------------|
   l  l  l


Riff 5:
|----------------------------|
|----------------------------|
|----------------------------|
|--5-----9--13--7-----7--10--|
|--3--6--7--11--5--8--5--8---|
|-----4------------6---------|
   l  l  l  l   l  l  l  l

Keyboard section...

Fill 2:
|---------|
|---------|
|---------|
|--10-----|
|--8---9--|
|------7--|
   l   m

Riff 6:
|--------------------------------------------------------------------|
|--------------------------------------------------------------------|
|--------------------------------------------------------------------|
|-101010101010101010101010101010101010101010-------------------------|
|-8-8-8-8-8-8-8-8-8-8-8-8-8-8-8-8-8-8-8-8-8--9999999999999999999999--|
|--------------------------------------------7777777777777777777777--|


Song structure:

Fill 1:         (1x)
Riff 1:         (4x)
Riff 2:         (4x)
Riff 1:         (4x)
Riff 3:         (2x)
Riff 4:         (4x)
Riff 5:         (4x)
Fill 2:         (1x)
Riff 6:         (4x)
Riff 2:         (4x)
Riff 1:         (4x)


9. Arcane Life Force Mysteria

Riff 1: (Clean guitar)
|-------------------------------------------------------|
|-------------------------------------------------------|
|------------------------------------9-----9----9-------|
|---6------6----6---8-----8-----8------8-----8----8--9--|
|----7------7---------7-----7-----7------7----7---------|
|-0-----0-----0---------0-----0-------------------------|
                                                     l

Guitar 2: (Distortion)
|---------------|
|---------------|
|---------------|
|---------------|
|-7--7---7--7---|
|-0--0---0--0---|
  .  l   .  m


Riff 2:
|------------------------------------------------|
|------------------------------------------------|
|------------------------------------------------|
|------------------------------------------------|
|-7-77-7-77-7-7--7-77-7-77-7-7--7-77-7-77-7-7-7--|
|-0-00-0-00-0-0--0-00-0-00-0-0--0-00-0-00-0-0-0--|
    ..   ..   .    ..   ..   .    ..   ..   . l


Riff 3: (Guitar 1)
|--------------------------------------------------------|
|--------------------------------------------------------|
|--------------------------------------------------------|
|-----7777-6666-1010101010-------------------------------|
|--------------------------8888-7777---------------------|
|-555--------------------------------8888-5555-444-0000--|


Fill 1: (Guitar 2)
|-------------------|
|-------------------|
|-------------------|
|-------------------|
|-7---10--7---6--2--|
|-5---8---5---4--0--|
  m       m

Play this under Riff 3:
|---------------------------------------|
|---------------------------------------|
|---------------------------------------|
|---------------------------------------|
|-777777--101010101010-777777-66666-2---|
|-555555--8-8-8-8-8-8--555555-44444-0---|


Riff 4:
|-----------|--------------------|
|-----------|--------------------|
|-----------|--------------------|
|-----------|--------------------|
|-2---2-----|-2-2-2-222--2-222---|
|-0---0-----|-0-0-0-000--0-000---|
  l               . ...  . ...


Riff 5:
|-----------------|
|-----------------|
|-----------------|
|-----------------|
|-7---10--7--6-2--|
|-5---8---5--4-0--|

Play that riff 4 times and then riff 3


Riff 6:
|------------------------------------------------------|
|------------------------------------------------------|
|------------------------------------------------------|
|-666-777-333-666666666-666-777-333-999-7777777777777--|
|-444-555-111-444444444-444-555-111-777-5555555555555--|
|------------------------------------------------------|


Riff 7:
|--------------------|
|--------------------|
|--------------------|
|-9/8-------10/9-----|
|--------------------|
|-----00-0-------00--|
      ..         ..

Riff 8:
|-----------------------|
|-----------------------|
|-----------------------|
|-----------------------|
|-7-6---------------10--|
|-----6-7--2-3-3--3/8---|
comments
We did not receive enough feedback on this tab! Please rate:
print report bad tab
1 2 3 4 5
1 comment total.
0 reply
Vil Blackrose wrote on April 18 2010, 02:33 pm

Good job dude, especially for all the solos.
Too bad nobody commented since 2005...

I want to post or [tab]
guest
You may want to rate the tab now too:
select rating
Please do not post tabs as comments. Select "correction" instead!