Oops, an error
Loading. Please wait.

Holy Diver Bass Tab

by Dio
ver1
ver1

Whole song

Interactive

More versions @911Tabs.com
79,381 views 147 this week
12 commentsread comments
1 2 3 4 5
excellent!
x 36
Autoscroll
+/-
esc
set tempo
stop
Contributor
Difficulty
novice
NEW! There's an official Ultimate Guitar app which is ideal
for learning songs when you're away from computer. Get the app
WARNING: You are trying to view
                                    content from Ultimate-Guitar.com
                                    in an unauthorized application,
                                    which is prohibited.

                                    Please use an official Ultimate
                                    Guitar Tabs application for iPhone,
                                    iPad or Android to access legitimate
                                    chords, guitar, bass, and drum tabs
                                    from Ultimate-Guitar.com database.

                                    Type "ultimate guitar tabs" in Apple
                                    App Store's or Android Market's
                                    search to find the application.
Original Contributor: Bassdude7657
New Contributor: Teh D Bot
Original Version at bottom

Intro
G|-----------------------------------------------------------------|
D|-----------------------------------------------------------------|
A|-3---3-3-3---3-3-3---5---6-------3---3-3-3---3-3-6-------1-------|
E|-----------------------------------------------------------------|
   1 + 2 + 3 + 4 + 1 + 2 + 3 + 4 + 1 + 2 + 3 + 4 + 1 + 2 + 3 + 4 +

G|-----------------------------------------------------------------|
D|-----------------------------------------------------------------|
A|-3---3-3-3---3-3-6-------1-------3-----1-----3-------------------|
E|-----------------------------------------------------------------|
   1 + 2 + 3 + 4 + 1 + 2 + 3 + 4 + 1 + 2 + 3 + 4 + 1 + 2 + 3 + 4 +

G|-----------------------------------------------------------------|
D|-----------------------------------------------------------------|
A|-3---3-3-3---3-3-3---5---6-------3---3-3-3---3-3-6-------1-------|
E|-----------------------------------------------------------------|
   1 + 2 + 3 + 4 + 1 + 2 + 3 + 4 + 1 + 2 + 3 + 4 + 1 + 2 + 3 + 4 +

G|---------------------------------------------------------------------------------|
D|---------------------------------------------------------------------------------|
A|-3---3-3-3---3-3-6-------1-------3-----1-----------------------------------1-----|
E|---------------------------------------------4---------------------------4-------|
   1 + 2 + 3 + 4 + 1 + 2 + 3 + 4 + 1 + 2 + 3 + 4 + 1 + 2 + 3 + 4 + 1 + 2 + 3 + 4 +

Verse
G|-----------------------------------------------------------------|
D|-----------------------------------------------------------------|
A|-3---3-3-3---3-3-3---3-3-3---3-3-3---3-3-3---3-3-3---3-3---------|
E|---------------------------------------------------------4-------|
   1 + 2 + 3 + 4 + 1 + 2 + 3 + 4 + 1 + 2 + 3 + 4 + 1 + 2 + 3 + 4 +

G|-----------------------------------------------------------------|
D|-----------------------------------------------------------------|
A|-3---3-3-3---3-3-1---1-1-1---1-1---------------------------------|
E|---------------------------------4---4-4-4---4-4-4---4-4-4---4-4-|
   1 + 2 + 3 + 4 + 1 + 2 + 3 + 4 + 1 + 2 + 3 + 4 + 1 + 2 + 3 + 4 +

G|-----------------------------------------------------------------|
D|-----------------------------------------------------------------|
A|-3---3-3-3---3-3-3---3-3-3---3-3-3---3-3-3---3-3-3---------------|
E|---------------------------------------------------------4-------|
   1 + 2 + 3 + 4 + 1 + 2 + 3 + 4 + 1 + 2 + 3 + 4 + 1 + 2 + 3 + 4 +

G|-----------------------------------------------------------------|
D|-----------------------------------------------------------------|
A|-3---3-3-3---3-3-1---1-1-1---1-1-3---3-3-3---3-3-3---3-3-3---3-3-|
E|-----------------------------------------------------------------|
   1 + 2 + 3 + 4 + 1 + 2 + 3 + 4 + 1 + 2 + 3 + 4 + 1 + 2 + 3 + 4 +

Chorus
G|-------------------------------------------------------------------------------------------------|
D|-------------------------------------------------------------------------------------------------|
A|-----------------------------1---3---3-3-3---3-3-3---5---6-------3---3-3-3---3-3-6-------1-------|
E|-4---4-4-4---4-4-4---4-4-4-----------------------------------------------------------------------|
   1 + 2 + 3 + 4 + 1 + 2 + 3 + 4 + 1 + 2 + 3 + 4 + 1 + 2 + 3 + 4 + 1 + 2 + 3 + 4 + 1 + 2 + 3 + 4 +

G|-----------------------------------------------------------------|
D|-----------------------------------------------------------------|
A|-3---3-3-3---3-3-6-------1-------3-----1-----3-------------------|
E|-----------------------------------------------------------------|
   1 + 2 + 3 + 4 + 1 + 2 + 3 + 4 + 1 + 2 + 3 + 4 + 1 + 2 + 3 + 4 +

Verse
G|-----------------------------------------------------------------|
D|-----------------------------------------------------------------|
A|-3---3-3-3---3-3-3---3-3-3---3-3-3---3-3-3---3-3-3---3-3---------|
E|---------------------------------------------------------4-------|
   1 + 2 + 3 + 4 + 1 + 2 + 3 + 4 + 1 + 2 + 3 + 4 + 1 + 2 + 3 + 4 +

G|-----------------------------------------------------------------|
D|-----------------------------------------------------------------|
A|-3---3-3-3---3-3-1---1-1-1---1-1---------------------------1-----|
E|---------------------------------4---4-4-4---4-4-4---4-4-4-------|
   1 + 2 + 3 + 4 + 1 + 2 + 3 + 4 + 1 + 2 + 3 + 4 + 1 + 2 + 3 + 4 +

G|-----------------------------------------------------------------|
D|-----------------------------------------------------------------|
A|-3---3-3-3---3-3-3---3-3-3---3-3-3---3-3-3---3-3-3---------------|
E|---------------------------------------------------------4-------|
   1 + 2 + 3 + 4 + 1 + 2 + 3 + 4 + 1 + 2 + 3 + 4 + 1 + 2 + 3 + 4 +

G|-----------------------------------------------------------------|
D|-----------------------------------------------------------------|
A|-3---3-3-3---3-3-1---1-1-1---1-1-3---3-3-3---3-3-3---3-3-3---3-3-|
E|-----------------------------------------------------------------|
   1 + 2 + 3 + 4 + 1 + 2 + 3 + 4 + 1 + 2 + 3 + 4 + 1 + 2 + 3 + 4 +

Chorus
G|-----------------------------------------------------------------|
D|-----------------------------------------------------------------|
A|---------------------------------1---1-1-1---1-1-1---1---2---2---|
E|-4---4-4-4---4-4-4---4-4-4---4-4---------------------------------|
   1 + 2 + 3 + 4 + 1 + 2 + 3 + 4 + 1 + 2 + 3 + 4 + 1 + 2 + 3 + 4 +

G|-----------------------------------------------------------------|
D|-----------------------------------------------------------------|
A|-3---3-----------1---1-----------------------------------1-------|
E|---------------------------------4---4-----------4---------------|
   1 + 2 + 3 + 4 + 1 + 2 + 3 + 4 + 1 + 2 + 3 + 4 + 1 + 2 + 3 + 4 +

G|-----------------------------------------------------------------|
D|-----------------------------------------------------------------|
A|-3---3-----------1---1-----------------------------------1-------|
E|---------------------------------3---------------3---------------|
   1 + 2 + 3 + 4 + 1 + 2 + 3 + 4 + 1 + 2 + 3 + 4 + 1 + 2 + 3 + 4 +

G|-----------------------------------------------------------------|
D|-----------------------------------------------------------------|
A|-3---3-----------1---1-----------------------------------1-------|
E|---------------------------------4---4-----------4---------------|
   1 + 2 + 3 + 4 + 1 + 2 + 3 + 4 + 1 + 2 + 3 + 4 + 1 + 2 + 3 + 4 +

G|-----------------------------------------------------------------|
D|-----------------------------------------------------------------|
A|-3---3-----------1---1-------------------------------------------|
E|---------------------------------4-------------------------------|
   1 + 2 + 3 + 4 + 1 + 2 + 3 + 4 + 1 + 2 + 3 + 4 + 1 + 2 + 3 + 4 +

Verse
G|-----------------------------------------------------------------|
D|-----------------------------------------------------------------|
A|-3---3-3-3---3-3-3---3-3-3---3-3-3---3-3-3---3-3-3---3-3---------|
E|---------------------------------------------------------4-------|
   1 + 2 + 3 + 4 + 1 + 2 + 3 + 4 + 1 + 2 + 3 + 4 + 1 + 2 + 3 + 4 +

G|-----------------------------------------------------------------|
D|-----------------------------------------------------------------|
A|-3---3-3-3---3-3-1---1-1-1---1-1---------------------------1-----|
E|---------------------------------4---4-4-4---4-4-4---4-4-4-------|
   1 + 2 + 3 + 4 + 1 + 2 + 3 + 4 + 1 + 2 + 3 + 4 + 1 + 2 + 3 + 4 +

G|-----------------------------------------------------------------|
D|-----------------------------------------------------------------|
A|-3---3-3-3---3-3-3---3-3-3---3-3-3---3-3-3---3-3-3---------------|
E|---------------------------------------------------------4-------|
   1 + 2 + 3 + 4 + 1 + 2 + 3 + 4 + 1 + 2 + 3 + 4 + 1 + 2 + 3 + 4 +

G|-----------------------------------------------------------------|
D|-----------------------------------------------------------------|
A|-3---3-3-3---3-3-1---1-1-1---1-1---------------------------------|
E|---------------------------------4-------------------------------|
   1 + 2 + 3 + 4 + 1 + 2 + 3 + 4 + 1 + 2 + 3 + 4 + 1 + 2 + 3 + 4 +

Solo
G|-----------------------------------------------------------------|
D|---------------------------------1-------------------------------|
A|-1-3-------------------------------3-----------------------------|
E|-----------------------------------------------------------------|
   1 + 2 + 3 + 4 + 1 + 2 + 3 + 4 + 1 + 2 + 3 + 4 + 1 + 2 + 3 + 4 +

G|-----------------------------------------------------------------|
D|---------------------------------1---------------1-------0-------|
A|-3---3-----------------------------3-----------------------------|
E|-----------------------------------------------------------------|
   1 + 2 + 3 + 4 + 1 + 2 + 3 + 4 + 1 + 2 + 3 + 4 + 1 + 2 + 3 + 4 +

G|-----------------------------------------------------------------|
D|---------------------------------1-------------------------------|
A|-1-3-------------------------------3-----------------------------|
E|-----------------------------------------------------------------|
   1 + 2 + 3 + 4 + 1 + 2 + 3 + 4 + 1 + 2 + 3 + 4 + 1 + 2 + 3 + 4 +

G|-----------------------------------------------------------------|
D|---------------------------------1---------------1-------3-------|
A|-1-3-------------------------------3-----------------------------|
E|-----------------------------------------------------------------|
   1 + 2 + 3 + 4 + 1 + 2 + 3 + 4 + 1 + 2 + 3 + 4 + 1 + 2 + 3 + 4 +

G|-----------------------------------------------------------------|
D|---------------------------------1-------------------------------|
A|-1-3-------------------------------3-----------------------------|
E|-----------------------------------------------------------------|
   1 + 2 + 3 + 4 + 1 + 2 + 3 + 4 + 1 + 2 + 3 + 4 + 1 + 2 + 3 + 4 +

G|-----------------------------------------------------------------|
D|---------------------------------1---------------1-------0-------|
A|-3---3-----------------------------3-----------------------------|
E|-----------------------------------------------------------------|
   1 + 2 + 3 + 4 + 1 + 2 + 3 + 4 + 1 + 2 + 3 + 4 + 1 + 2 + 3 + 4 +

G|-----------------------------------------------------------------|
D|-----------------------------------------------------------------|
A|---------------------------------1---1-1-1---1-1-1---1-1-1---1-1-|
E|-4---4-4-4---4-4-4---4-4-4---4-4---------------------------------|
   1 + 2 + 3 + 4 + 1 + 2 + 3 + 4 + 1 + 2 + 3 + 4 + 1 + 2 + 3 + 4 +

G|-----------------------------------------------------------------|
D|-----------------------------------------------------------------|
A|-3---3-3-3---3-3-3---3-3-3---3-3-5---5---5---5---6-------5-------|
E|-----------------------------------------------------------------|
   1 + 2 + 3 + 4 + 1 + 2 + 3 + 4 + 1 + 2 + 3 + 4 + 1 + 2 + 3 + 4 +

G|-----------------------------------------------------------------|
D|-----------------------------------------------------------------|
A|---------------------------------1---------------3-------1-------|
E|-4---4-4-4---4-4-4---4-4-4---4-4---------------------------------|
   1 + 2 + 3 + 4 + 1 + 2 + 3 + 4 + 1 + 2 + 3 + 4 + 1 + 2 + 3 + 4 +

Verse
G|-----------------------------------------------------------------|
D|-----------------------------------------------------------------|
A|-3---3-3-3---3-3-3---3-3-3---3-3-3---3-3-3---3-3-3---3-3---------|
E|---------------------------------------------------------4-------|
   1 + 2 + 3 + 4 + 1 + 2 + 3 + 4 + 1 + 2 + 3 + 4 + 1 + 2 + 3 + 4 +

G|-----------------------------------------------------------------|
D|-----------------------------------------------------------------|
A|-3---3-3-3---3-3-1---1-1-1---1-1---------------------------1-----|
E|---------------------------------4---4-4-4---4-4-4---4-4-4-------|
   1 + 2 + 3 + 4 + 1 + 2 + 3 + 4 + 1 + 2 + 3 + 4 + 1 + 2 + 3 + 4 +

G|-----------------------------------------------------------------|
D|-----------------------------------------------------------------|
A|-3---3-3-3---3-3-3---3-3-3---3-3-3---3-3-3---3-3-3---------------|
E|---------------------------------------------------------4-------|
   1 + 2 + 3 + 4 + 1 + 2 + 3 + 4 + 1 + 2 + 3 + 4 + 1 + 2 + 3 + 4 +

G|-----------------------------------------------------------------|
D|-----------------------------------------------------------------|
A|-3---3-3-3---3-3-1---1-1-1---1-1-3---3-3-3---3-3-3---3-3-3---3-3-|
E|-----------------------------------------------------------------|
   1 + 2 + 3 + 4 + 1 + 2 + 3 + 4 + 1 + 2 + 3 + 4 + 1 + 2 + 3 + 4 +

Interlude
G|-----------------------------------------------------------------|
D|-----------------------------------------------------------------|
A|---------------------------------1---1-1-1---1-1-1---1-1-1---1-1-|
E|-4---4-4-4---4-4-4---4-4-4---4-4---------------------------------|
   1 + 2 + 3 + 4 + 1 + 2 + 3 + 4 + 1 + 2 + 3 + 4 + 1 + 2 + 3 + 4 +

G|-----------------------------------------------------------------|
D|-----------------------------------------------------------------|
A|---------------------------------1---------------1-------2-------|
E|-4---4-4-4---4-4-4---4-4-4---4-4---------------------------------|
   1 + 2 + 3 + 4 + 1 + 2 + 3 + 4 + 1 + 2 + 3 + 4 + 1 + 2 + 3 + 4 +

Outro
G|------------------------------------------------------------------|
D|o-----------------------------------------------------------------|
A|o-3---3-3-3---3-3-3---5---6-------3---3-3-3---3-3-6-------1-------|
E|------------------------------------------------------------------|
    1 + 2 + 3 + 4 + 1 + 2 + 3 + 4 + 1 + 2 + 3 + 4 + 1 + 2 + 3 + 4 +

G|------------------------------------------------------------------|
D|-----------------------------------------------------------------o|
A|-3---3-3-3---3-3-3---5---6-------3---3-3-3---3-3-6-------5-------o| Repeat and Fade Out
E|------------------------------------------------------------------|
   1 + 2 + 3 + 4 + 1 + 2 + 3 + 4 + 1 + 2 + 3 + 4 + 1 + 2 + 3 + 4 +
Tab changed by: Dave Vucko

============================================================================  

Original version

Intro

1--------------------------------------------------|
2--------------------------------------------------|
3-3-333-333-5-6--3-333-33-6-1--3-333-33-6-1--3-1-3-|
4--------------------------------------------------|

1--------------------------------------------------------|
2--------------------------------------------------------|
3-3-333-333-5-6--3-333-33-6-1--3-333-33-6-1--3-1-------1-|
4------------------------------------------------4---4---|

  Verse

1----------------------------------------------------------------|
2----------------------------------------------------------------|
3-3-333-333-333-333-333-333-33--3-333-331-111-11-----------------|
4-----------------------------4-----------------4-444-444-444-44-|

1-------------------------------------------------------------|
2-------------------------------------------------------------|
3-3-333-333-333-333-333-333-----3-333-331-111-113-333-333-333-|
4-----------------------------4-------------------------------|

  Chorus

1--------------------------------------------------------------------|
2--------------------------------------------------------------------|
3-------------------3-333-333-5-6--3-333-33-6-1--3-333-33-6-1--3-1-3-|
4-4-444-444-444-44---------------------------------------------------|

  Verse

1----------------------------------------------------------------|
2----------------------------------------------------------------|
3-3-333-333-333-333-333-333-33--3-333-331-111-11---------------1-|
4-----------------------------4-----------------4-444-444-444-4--|

1-------------------------------------------------------------|
2-------------------------------------------------------------|
3-3-333-333-333-333-333-333-----3-333-331-111-113-333-333-333-|
4-----------------------------4-------------------------------|

  Chorus

1------------------------------------------------------------------|
2------------------------------------------------------------------|
3-----------------1-111-111-11-3-3--1-1---------1--3-3--1-1------1-|
4-4-444-444-444-44-----------------------4-4--4-------------3------|

1----------------------------------|
2----------------------------------|
3-3-3--1-1----------1--3-3--1-1----|
4------------4-4--4--------------4-|

  Verse

1----------------------------------------------------------------|
2----------------------------------------------------------------|
3-3-333-333-333-333-333-333-33--3-333-331-111-11---------------1-|
4-----------------------------4-----------------4-444-444-444-4--|

1--------------------------------------------------|
2--------------------------------------------------|
3-3-333-333-333-333-333-333-----3-333-331-111-11-3-|
4-----------------------------4--------------------|

  During Solo

1----------------------------------------------------------------------|
2---------1--------------1-------1-0---------1--------------1------1-3-|
3-1-3------3-----3-3------3----------1-3------3-----3-3------3---------|
4----------------------------------------------------------------------|

1------------------------------------------------------------------------|
2---------1--------------1---1-0-----------------------------------------|
3-1-3------3-----3-3------3----------------------1-111-111-111-----------|
4--------------------------------4-444-444-444-44--------------4-444-444-|

1----------------------------------------------|
2-----------------1-0--------------------------|
3-------1-111-11------------------------3--1---|
4-444-44--------------4-444-444-444------------|

  Verse

1----------------------------------------------------------------|
2----------------------------------------------------------------|
3-3-333-333-333-333-333-333-33--3-333-331-111-11---------------1-|
4-----------------------------4-----------------4-444-444-444-4--|

1-------------------------------------------------------------|
2-------------------------------------------------------------|
3-3-333-333-333-333-333-333-----3-333-331-111-113-333-333-333-|
4-----------------------------4-------------------------------|

  Bridge to Out

1---------------------------------------------------------|
2---------------------------------------------------------|
3----------------1-111-111-111----------------------1--3--|
4-4-444-444-444-----------------4-444-444-444---4---------|

  Out

1-----------------------------|
2-----------------------------|  10X
3-3-333-333-5-6--3-333-33-6-1-|
4-----------------------------|
comments
print report bad tab
12 comments total. Showing first comments.
+2 reply
saturns_bassman wrote on April 14 2007, 02:03 pm

great tab dude but the main riff is missing somthing

g|-----------------------------|
d|-----------------------------| there is a extra D on the second
a|-3-333-333-5-6-3-333-3-5-6-1-| half of the main riff
e|-----------------------------|

+2 reply
Stolenidentity1 wrote on July 10 2007, 11:06 am

^ i dont think so dude it seems pretty right to me, but it doesnt sound bad like that

5/5 for me altough its easier to play like

g|-----------------------------|
d|-----------------------------|
a|-3-333-333-5-6-3-333-3-5-6---|
e|---------------------------6-| for the noobs that are like WtFZoRZ ItS TOo FaR AwAy!1!1!

0 reply
Dillweed Dio wrote on September 3 2007, 11:16 am

u rock my socks!!

I want to post or [tab]
guest
You may want to rate the tab now too:
select rating
Please do not post tabs as comments. Select "correction" instead!