Oops, an error
Loading. Please wait.

Rondo No 2 In Am Tab

4,331 views 12 this week
no commentswrite comment
1 2 3 4 5
please rate
add to favorites launch autoscroll
font size
0
reset
Autoscroll
+/-
esc
set tempo
stop
Contributor
Difficulty
advanced
WARNING: You are trying to view
                                    content from Ultimate-Guitar.com
                                    in an unauthorized application,
                                    which is prohibited.

                                    Please use an official Ultimate
                                    Guitar Tabs application for iPhone,
                                    iPad or Android to access legitimate
                                    chords, guitar, bass, and drum tabs
                                    from Ultimate-Guitar.com database.

                                    Type "ultimate guitar tabs" in Apple
                                    App Store's or Android Market's
                                    search to find the application.
Rondo No 2 in Am - Dionisio Aguado (1784-1849)
1st version - by Alex Clavijo, LHR + RHF, no intro, based on Julian Bream
2nd version - by Jonny Hotnuts, no intro, no ornaments
Tab by suraaj parab
******************************************************************************

Rondo No 2 - written by Dionisio Aguado
Tab by Alex Clavijo (clavijo.alx@gmail.com)

This tab closely follows Julian Bream's version of the piece.  With
that said, the formal introduction, and another section towards the 
end have been removed.  After hearing various versions of Rondo No 2,
I can understand why Julian Bream did this; removing those sections
makes the peice more aggressive.

This is a very difficult piece and requires a lot of dedication to 
get down.  With that said, this is my perspective on one the easiest
ways to play it.  Don't take this tab as the be all and end all.
There are different ways to play almost every section of the peice...
so the bottom line is do what's comfortable! (especially for a
marathon peice like this)

I would like to thank Aguado for writing this piece, Julian Bream
for inspiring me to want to attempt it, and my old teacher Kevin
Gallagher for showing me how to approach it.


NOTES :

- Barres 51 and 52 can be played a number of different ways.  The
way put in the tab was a way I learned from a friend which I found
to be the easiest.  At the end of the tab, I wrote the way Julian 
Bream, and the way Li Jie play this scale.

- Any note in (parentheses) can be played if you want to. 
In most cases, the notes add a little more difficulty to the piece.
Since the piece is played rather quickly, most people will not 
notice a missing note here and there (especially when the note is 
part of a chord).  The notes DO add a little ornamentation, so the
choice is yours.

- If you have any comments/suggestions/problems/mistakes/love feel
free to email me at clavijo.alx@gmail.com  ...I have played over 
the tab a bunch of times and I'm sure there may be a mistake or two
still there.

                                  m
               1                  p i p i p p i m  
E--||---------|----------------|------------------|0-0-3p1-0----|
B--||---------|-1--1h3--0--0h1-|----------------1-|----------3--|
G--||------2--|----------------|--2-----------2---|-------------|
D--||---2-----|----------------|----2---2---2-----|-------------|
A--||---------|-0--------------|--0---3---0-------|3------------|
E--||---------|---------0------|------------------|-------------|
        2  3    1    4       1    3 2 4         1  3   4 1  4


 4            5                  II.....          7
E--------0-3-|-3p1-0-1-1p0---0-|-----------------|---------------
B-1---0------|-------------4---|-5p3-2-3-3p1-0-1-|1p0-3-0---1-0--
G-2---1------|-----------------|-----------------|--------2-----1
D-2---2------|-0---------------|-----------------|0-------2------
A------------|---------3-------|-2-------0-------|---------------
E---0--------|-----------------|-----------------|------------0--
           3           1   4-----4 2   2 4 1          3   3     1
                       3                                  2

  m
  p i p i p     9                              11
E-------------||--------------|-----0-5h8-7-5-|-5-4-7-5-4---0---|
B-------------||--0---1/5---0-|---1-----------|-----------6-----|
G-2----------*||*-1-------7---|-2-------------|---------------7-|
D---2---2----*||*-------------|---------------|-----------------|
A-0---3---0---||--------------|-0-------------|-----------------|
E-------------||--0-----------|---------------|-0---------------|
  3 2 4               1   3           1 4 3 1   2 1 4 2 1 2   3

 12           V...... VII.....  VIII.........      15  VII.....
E---------0-|-------5-------7-|-----------------8-|--7------7---|
B-----------|-6p5-6---9p7-9---|-10p9-10-12-10-----|6---9h10---9-|
G-7-6-5-----|-----------------|-------------------|7--(7)-------|
D-----------|-----------------|-------------------|0------------|
A-0---------|-5-------7-------|-8-----------------|----7--------|
E-----------|-----------------|-------------------|---------0---|
  3 2 1                                         4  1 3     
                                                   2


  V........     17                 V....      19
E-5---8---5---||---12-10p8-7h8p7-|-5-------0-|---5-5-4-5-4-5-6--|
B-----5-------||---10------------|-5---------|------------------|
G-5-------5--*||---X-------------|-5---------|---5-5-4-5-4-5-6--|
D------------*||---10------------|---6\7-----|------------------|
A-0-----------||---0-------0-----|-----------|---0--------------|
E-------------||-----------------|-----------|------------------|
                       4 2 1 2 1                 4 4 2 4 2 4 4
                                                 3 3 1 3 1 3 3


  20        21                   IX..           IX...VI..V
E-7--5-4----|-13-12-12p10-8----|-------------|------------------|
B-----------|-12------------12-|-9-12-----10-|---9---6---5--3---|
G-7--5-4----|-13---------------|-9-----8-----|---9---7---5--1---|
D-----------|-12---------------|-9-----10----|---9---6---7--2---|
A-----------|------------------|-------------|------------------|
E-0---------|------------------|-------------|------------------|
  4  2 2         4  4  2  1 4      4   1  4                 4
  3  1 1                               3                    1
                                                            2



                         *If you want, do not play parentheses
  24                 1/2 IX................................ 
E--------------||---------------12--|-12----------10-----------||
B---3-2-1------||----10---13--------|----------------12---9----||
G---2----------||*-9----9----9-----9|---9----9----9-------9---*||
D--------------||*---10---10----10--|-----12---12---(12)------*||
A---0----------||-0-----------------|--------------------------||
E--------------||-------------------|-0------------------------||
    4 4 1          1 3  1 4  1  4  1    1 3  1 3  2  4   
    2                2    2     2                 1  3



                            *If you want, do not play parentheses
 27  V..............................  VIII......................
E----5-----------5---|-7---7---7---7-|---8-------10-------------|
B------5---5---5---5-|---6---6---6---|-----8--8-----8-8---------|
G--------5-------5---|-----7---7---7-|--------------------------|
D------------7-------|-5-------------|--(9)-----(10)------------|
A----0---------------|---------------|---10------9--------------|
E--------------------|---------------|--------------------------|
             3                          



                                                   (hinge bar)
30 VIII.....................                   VIII.............
E---12--12--10p8-----8--|-----13-12-10---------|-12-10-8--------|
B-----------------12----|-10-----------13-12-10|8--------12-10-8|
G-----------------------|-10-------------------|9---------------|
D---10------------------|----------------------|----------------|
A-----------------------|-8--------------------|----------------|
E-----------------------|----------------------|8---------------|
                              4  3  1  4  3  3



VIII........... X.... VIII             35
E-------10----8-------|-8-------------|----12--------15---------|
B-10-10-----8------12-|---------------|----11-------------------|
G-10-10---------10----|(9)------------|----12-------------------|
D---------------------|-10------------|----11-------------------|
A-8--8------10--10----|---------------|-------------------------|
E---------------------|---------------|-------------------------|




               (hinge bar throughout)
 1/2VII      X...................................  39
E---9-----------|-10------12-----|-13------12--10-|-14----17----|
B---8--------10-|-10-10-------10-|-----10---------|-13----------|
G---9-----------|--------(12)----|-------------10-|-14----------|
D---7-----------|-12------11-----|-12-------------|-13----------|
A---------------|----------------|----------------|-------------|
E---------------|----------------|----------------|-------------|


               (hinge bar)
1/2 IX        IX......................          43
E--11--------|-12-12-12/11--9--11-|-12---12-13-|-13\4--4-4-4----|
B--10--10\12-|-9-----10-----------|-9----------|-------3-3-3----|
G--11--------|-9-----11-----------|-9----------|----------------|
D--9---------|--------------------|------------|-------2-2-2----|
A------------|--------------------|------------|----------------|
E------------|--------------------|------------|----------------|
       3                                  3  4    4


   V..........           45             V.......................
E--7p5---5-7-8-10-12-13-|-13/4--4-4-4-|-7p5---5-7-8-8p7-5-------|
B--5---9----------------|-------3-3-3-|-5---9-------------------|
G-----------------------|-------------|-------------------------|
D--7--------------------|-------2-2-2-|-7-----------------------|
A-----------------------|-------------|-------------------------|
E-----------------------|-------------|-------------------------|
                1  3  4   4   

         
V......................              50   p i m i m i   m m    i
E-5-----5-----|--------0---|--------||--0-------0-4-7p4-0-10p7-0|
B---------8-6-|6-----6---4-|-4-4-4-4||--------0-----------------|
G---5-5-------|--5-5-------|---2-2-2||*-----1-------------------|
D---7-7-------|--7-7-------|--------||*-2-2---------------------|
A---8-8-------|--8-8-------|--------||--------------------------|
E-------------|------------|---1-1-1||--0-----------------------|
                         4                 


(There are two other ways to play this fast scale; shown later)

  m     i m     i  m p m i   m   p p i m i m i   m i   m
E-13p12-10-------------0-------|-------0-5-7-8p7-5-4h5-0--------|
B---------13\12-10-9---------0-|-----1--------------------------|
G--------------------10--7p5---|---2----------------------------|
D------------------------------|--------------------------------|
A------------------------------|-0------------------------------|
E------------------------------|--------------------------------|
  4  3  1 4     2  1  2  3 1             1 3 4 3 1 1 2

53                                    p i m i m i   m m    i
E-----0-------0-------0-------0--||---------0-4-7p4-0-10p7-0----|
B-1-------5-------3-------1------||-0-----0---------------------|
G---2-------2-------1-------2---*||-1---1-----------------------|
D-------------------------------*||---2-------------------------|
A-0-------3-------2-------0------||-----------------------------|
E--------------------------------||-0---------------------------|


  m     i m     i  m p  m i   m    V........................
E-13p12-10--------------0-------||---------5h8-8-7-------------||
B---------13\12-10-9----------0-||------5-----------5-----5----||
G--------------------10---7p5---||*---5-----------7-----7-----*||
D-------------------------------||*-7-----------6-------------*||
A-------------------------------||--------------------7--------||
E-------------------------------||-----------------------------||
  4  3  1 4     2  1 2  3 1


       (hinge bar)
   I..............................................
E||--------1h5-5-3------------||-------1h3-5-5p3-1-0------------|
B||------1-----------1-----1--||-----1---------------3-1--------|
G||*---2-----------3-----3---*||---2----------------------------|
D||*-3-----------2-----------*||-3------------------------------|
A||--------------------3------||--------------------------------|
E||---------------------------||--------------------------------|



 59                          60
E--------------------------||--------0h3-3--------1h3-3--------||
B-0h1-3-1-0----------------||------1------------0--------------||
G-----------2-0h2-0--------||*---0------------0---------------*||
D-------------------3-2-0--||*--------------------0-----------*||
A--------------------------||--3------------2------------------||
E--------------------------||----------------------------------||


 61            II..........     62               II..........
E-------0h3-3--------3h5-5-----|----------1h5-5--------3h5-5----|
B-----1------------2-----------|--------3------------2----------|
G---0------------2-------------|------2------------2------------|
D--------------------2---------|----0------------------2--------|
A-3------------4---------------|-----------------4--------------|
E------------------------------|--------------------------------|


 63           IV..........   64            IV....................
E-------1h5-5-------5h7-7--|------0-4h7-7--------5h7-7----------|
B-----3-----------4--------|----0--------------4----------------|
G---2-----------4----------|-----------------4------------------|
D-0-----------------4------|---------------------4--------------|
A-------------6------------|--7------------6--------------------|
E--------------------------|------------------------------------|


.....                        VII...VIII VII
E--4-----4-4h5-7-7h9-10-|-10--10-8--8--|-7-----4-4h5-7-7h9-10---|
B----5h7----------------|-----9--10-10-|-9-5h7------------------|
G-----------------------|-----------8--|-9----------------------|
D-----------------------|--------7-----|------------------------|
A--7--------------------|-----7--------|------------------------|
E-----------------------|--------------|------------------------|
     2 4 1 1 2 4 1 3 4

 VII                         69       70
E-10------7-7h9-10-10h12-13-|-13-----|------13-12-10-12-12------|
B-9--9h10-------------------|-12-----|------12----------10------|
G---------------------------|-X------|--------------------------|
D---------------------------|-12-----|------12----------10------|
A-7-------------------------|-11-----|--------------------------|
E---------------------------|--------|--------------------------|


 IX.........                   73
E-12p10-9-10-7-8-8-|-7-7--4-4-|-5-----------5---|4-----5-7---7--|
B-9----------------|-6-6--3-3-|-----------------|---------------|
G----------------9-|-7-7--4-4-|-5-----------5---|4-----5-7---7--|
D-9--------------7-|-0----2---|-----------------|---------------|
A------------------|----------|-0-0-0-0-0-0-0-0-|0-0-0-0-0-0-0-0|
E------------------|---7----0-|-----------------|---------------|
             1 2 2   4 4
                 3   2 2
                 1   3 3
                       1

                     76
E-5---8-------7-5---|-4---4---5---7---|-7---5-------5-----------|
B-------------------|-----------------|-------------------------|
G-5---9-------7-5---|-4---4---5---7---|-7---5-------5-----------|
D-------------------|-----------------|-------------------------|
A-0-0-0-0-0-0-0-0---|-0-0-0-0-0-0-0---|-0-0-0-0-0-0-0-0---------|
E-------------------|-----------------|-------------------------|

 78                                      80
E--4-----5-7---7----|--5---8-------7-5--|--4---4---5---7--------|
B-------------------|-------------------|-----------------------|
G--4-----5-7---7----|--5---9-------7-5--|--4---4---5---7--------|
D-------------------|-------------------|-----------------------|
A--0-0-0-0-0-0-0-0--|--0-0-0-0-0-0-0-0--|--0-0-0-0-0-0-0-0------|
E-------------------|-------------------|-----------------------|

                   82                             84
E-5-5-5-5-5-5-5-5|5-5-5-5-5-5-5-5|5-5-5-5-5-5-5-5|5-5-5-5-5-5-5-5
B----------------|---------------|---------------|---------------
G-5-5-5-5-5-5-5-5|5-5-5-5-5-5-5-5|5-5-5-5-5-5-5-5|5-5-5-5-5-5-5-5
D----------------|0-----2-3---2--|1---2----------|0-----2-3---2--
A-0---------0-2-3|---------------|----------0-2-3|---------------
E----------------|---------------|---------------|---------------


               86                                                        
E-5----8p7-5--|-8p7-5-8p7-5-8p7-5-8p7-5-|---4--------13-13-13---|
B-------------|-------------------------|---0-------------------|
G-5-----------|-------------------------|-----------------------|
D-1-----------|-------------------------|---2-------------------|
A-------------|-------------------------|-----------------------|
E-------------|-------------------------|-----------------------|
       4 3 1                                          4  4  4

 88                                        90
E-13p10-10-10-10p7-7-7-|-7p4--------------|---------------------|
B----------------------|-----9-9-9p6-6-6--|-6p3-3p0-------------|
G----------------------|------------------|---------4p1-1-------|
D----------------------|------------------|---------------h3----|
A----------------------|------------------|------------------3p0|
E----------------------|------------------|---------------------|
     1  4  4  4 1 4 4    4 1 4 4 4 1 4 4    4 1




**The key to playing these arpeggios quickly is to not place
the entire chord at once; yet placing the fingers once needed**

E||---------------------------||--------------------------------|
B||--------0-----------0------||--------1-----------1-----------|
G||*-----1---1-------1---1---*||------2---2-------2---2---------|
D||*---3-------3---3-------3-*||----2-------2---2-------2-------|
A||--5-----------5-----5------||--3-----------3-----3-----------|
E||---------------------------||--------------------------------|
     4 2 1                        4 2 3 1
     p i m a m i p i m a m i      p i m a m i p i m a m i
                       p                            p

 93                                 94
E---------------------------------|--------------------0--------|
B-------3-----------3-------------|-------1----------1---1------|
G-----1---1-------1---1-----------|-----2---2------3-------3----|
D---2-------2---2-------2---------|---2-------2-----------------|
A-2-----------2-----2-------------|-0---------------------------|
E---------------------------------|--------------3--------------|
  2 3 1 4                             2 3 1      3 4 1
  p i m a m i p i m a m i           p i m a m i  p i m a m i
                    p



 I............  1/2 II.......    96
E-------1--------------3--------|---------1-----------1---------|
B-----3---3----------2---2------|-------3---3-------3---3-------|
G---2-------2------2-------2----|-----2-------2---2-------2-----|
D----------------------2--------|---0-----------0-----0---------|
A-------------------------------|-------------------------------|
E-1--------------0--------------|-------------------------------|
    2 3                               2 3 1
  p i m a m i    p i m a m i        p i m a m i p i m a m i
                       p                              p



   V.....................       IV...........  V..........       
E-------5-----------5--------|---------4------------5-----------|
B-----7---7-------7---7------|-------5---5--------5---5---------|
G---5-------5---5-------5----|-----4-------4----5-------5-------|
D----------------------------|----------------------------------|
A-6-----------6-----6--------|---7------------7-----------------|
E----------------------------|----------------------------------|
  2   3                          4   2
  p i m a m i p i m a m i        p i m a m i  p i m a m i
                    p

     99                          100      
E||--------4------------5------||----4---------------------7p5---
B||------5---5--------5---5----||----5----5p4-7p5-9p7-10p9-------
G||*---4-------4----5-------5-*||----4---------------------------
D||*--------------------------*||--------------------------------
A||--7------------7------------||----7---------------------------
E||--------0------------0------||-0------------------------------
     4   2
     p i m a m i  p i m a m i
           p            p


E-8p7-10p8-12p10-13p12-10h12-10p8-7h8-7p5-4h5-3p1-0h1-0---1------
B-------------------------------------------------------3---3----
G----------------------------------------------------------------
D----------------------------------------------------------------
A----------------------------------------------------------------
E----------------------------------------------------------------

E----------------------------------------------------------------
B-1p0-3p0-----0--------------------------------------------------
G---------2p1---1-------------------------------7p5-9p7-10p9-8h9-
D-----------------2----2p1-4p2-6p4-7p6-9p7-10p9------------------
A----------------------------------------------------------------
E----------------------------------------------------------------


                             m
                             p i p i p p i m  102
E-------------------------|------------------|--0-0-3p1-0-------|
B-------------------------|----------------1-|------------3-----|
G-9p7-6h7-7p5-4h5-5p4-3h4-|--2-----------2---|------------------|
D-------------------------|----2---2---2-----|------------------|
A-------------------------|--0---3---0-------|--3---------------|
E-------------------------|------------------|------------------|


                                 II....           106         
E--------0-3-|-3p1-0-1-1p0---0-|-----------------|---------------
B-1---0------|-------------4---|-5p3-2-3-3p1-0-1-|1p0-3-0---1-0--
G-2---1------|-----------------|-----------------|--------2-----1
D-2---2------|-0---------------|-----------------|0-------2------
A------------|---------3-------|-2-------0-------|---------------
E---0--------|-----------------|-----------------|------------0--

  m
  p i p i p                                   110                                
E-------------|--------------|-----0-5h8-7-5-|-5-4-7-5-4---0----|
B-------------|--0---1/5---0-|---1-----------|-----------6------|
G-2-----------| -1-------7---|-2-------------|---------------7--|
D---2---2---- |--------------|---------------|------------------|
A-0---3---0---|--------------|-0-------------|------------------|
E-------------|--0-----------|---------------|-0----------------|


            V....... VII...... VIII............         VII.....
E---------0|-------5---------7|-----------------8--|--7------7--|
B----------|8p6-5-6--10p9-7---|12p10-9-10-12-10----|6---9h10---9|
G-7-6-5----|------------------|--------------------|7---7-------|
D----------|------------------|--------------------|0-----------|
A-0--------|5--------7--------|8-------------------|----7-------|
E----------|------------------|--------------------|---------0--|
                                                4


 115            III        VIII.................................
E-5---8---5---|--3----7---|-8----------8h10-|-h12-------12-10-8-|
B-----5-------|--5----6---|-8--8h10h12------|-----8--8----------|
G-5-------5---|--5----7---|-9---------------|-----9--9----------|
D-------------|-------0---|-10--------------|-----10-10---------|
A-0-------0---|--3--------|-----------------|-------------------|
E-------------|-----------|-----------------|-------------------|



............            120          VIII........................
E-13--------13-10----|--------------|-------8h12-10p8-----------|
B----8---8--------12-|-8-8----------|-----8------------12-10----|
G----10--10----------|-------11--10-|-9-------------------------|
D----9---9-----------|-----------9--|-10------------------------|
A--------------------|---10--12-----|---------------------------|
E--------------------|--------------|---------------------------|
            4  1  3    1 1   2   2    2                4  3
                         3   3   1    3

................................................................
E----------------------|------8h12-10p8-------|-----------------|
B-10p8----8----8-----8-|----8-----------12-10-|10p8---8---8---8-|
G------11---11----10---|-9--------------------|-----11--11--10--|
D-----------------9----|-10-------------------|-------------9---|
A------10---12---------|----------------------|-----10--12------|
E----------------------|----------------------|-----------------|
       3    3     3      2              4  3        3   3   3
       2    4     2      3                          2   4   2


........................  VII...  V................   IV...
E--------8h12-12------12------10|-------5h8-8-----8-------7-----|
B------8------------------------|-----5-------------------------|
G----9--------------9-------7---|---5-----------5-------4-------|
D-10-------------10-------9-----|-7-----------7-------5---------|
A-------------------------------|-------------------------------|
E-------------------------------|-------------------------------|
  3  2     4              3   4   3       4           2   4


  I.................             128
E-------1h5-5------5------3-----|---------1-1-----1-------0-----|
B-----1-------------------------|-------3-----------------------|
G---2------------2------0-------|-----2-------------------------|
D-3------------3------2---------|-0h3---------0h3-------2-------|
A-------------------------------|---------------------3---------|
E-------------------------------|-------------------------------|
  3 2     4    3 2 4  2   4         3 2 4 1     3 1   3 2


                   130
E----------------|------------0--|3-------------|------------0--|
B-3-----------0--|1---1---3------|-----------0--|1---1---3------|
G---0---0---0---0|--0---0---0---0|-0---0---0---0|--0---0---0---0|
D-----4---4------|----2----------|---4---4------|----2----------|
A----------------|3-------2---3--|--------------|3-------2---3--|
E-3-----------3--|---------------|3----------3--|---------------|
  2   3   3   3   1   1   3   3   2  3   3   3   1   1   3   3
  1               3   2   2       1              3   2   2


 III...............................             VIII......  X
E---5p3---5p3-|---5p3---3---5p3---3|---10-7-15-|-8--------------|
B-3-----5-----|-3-----7---5-----7--|-7----8----|-----10--8--12--|
G-4-----5-----|-4---------5--------|-7----10---|-9---10--9--10--|
D-------------|--------------------|-0---------|-10-------------|
A-------------|--------------------|-----------|-----8---10-10--|
E-3-----3-----|-3---------3--------|-----------|----------------|
  2 4   3 4     2 4   4   3 4   4    3 4  1 4    2   4   2  3
        2                 2          2    2      3   3   3
                                          4

 VIII...........................................................
E--------8-12-10p8----8---------|-------------------------------|
B------8-----------12---8-------|------8-------8-------8-------8|
G----9--------------------9-----|---10------10------10------10--|
D-10------------------------10--|-9------12-------9-------------|
A-------------------------------|-------------------------10----|
E-------------------------------|-------------------------------|
  3  2 1 1 4  3    4  1 1 2 3     2 3    4  2     2 3     2 3
  p  i m i m  i    m  a m i p     p i m  p  i  m  p i m   p i m


  V............................................................
E--------5-8-7p5----5--------|----------------------------------|
B------5----------9---5------|--------5------5------5------5----|
G----5------------------5----|------7------7------7------7------|
D--7----------------------7--|----6------9------6---------------|
A----------------------------|-------------------------7--------|
E----------------------------|----------------------------------|
   3       4 3    4       3       2 3    4 3    2 3    2 3
   p i m i m i    m a m i p       p i m  p i m  p i m  p i m


    
  (hinge bar throughout............)
 I..............................................................
E--------1-5-3p1-----1-------|----------------------------------|
B------1-----------5---1-----|---------1------1-------1------1--|
G----2-------------------2---|-------3------3-------3------3----|
D--3-----------------------3-|-----2------5-------2------3------|
A----------------------------|----------------------------------|
E----------------------------|----------------------------------|
   3 2     4 3     4     2 3       2 3    4 3     2 3    2 3
   p i m i m i     m a m i p       p i m  p i m   p i m  p i m




  I...........                 III.........
E--------1h5-5---------2/5-5-|--------3h7-7----------4/7-7------|
B------1-------------1-------|------3--------------3------------|
G----2-------------2---------|----4--------------4--------------|
D--3-------------0-----------|--5--------------2----------------|
A----------------------------|----------------------------------|
E----------------------------|----------------------------------|
   3 2     4       3 2 4 4      3 2     4      1 3 2 4 4
   p i m a   m   p i m a   m    p i m a   m    p i m a   m
(for speed, keep 4 down here)



   V...........                 146 
E--------5h8-8---------7/10-10-|-------9/12-12----------12/15-15|
B------5-------------6---------|-----8---------------11---------|
G----5-------------7-----------|---9--------------12------------|
D--7-------------6-------------|-8-------------11---------------|
A------------------------------|--------------------------------|
E------------------------------|--------------------------------|
   3       4     1 3 2 4 4       1 3 2 4 4     1  3  2  4  4
   p i m a   m   p i m a    m    p i m a    m  p  i  m  a     m
                 (the same fingering position till..........here)

                

  X.................................................
E----------10-13-12p10----10---------|---------10-10-----10/13-13
B-------10-------------14----10------|-------12---------9-------
G----10-------------------------10---|-----10---------10--------
D-12-------------------------------12|---12----------9----------
A------------------------------------|-11-----------------------
E------------------------------------|--------------------------
  3           4  3     4           3   2  3  4
  p  i  m i   m  i     m  a  m  i  p   p  p i m a m  p ima     m



 VIII..........................................................
E--------8-11-10p8----8-------|---------------------------------|
B------8-----------12---8-----|---------9-----------------------|
G----8--------------------8---|-------8---8----------8-------8--|
D-10------------------------10|----10-------10----10------10----|
A-----------------------------|-11-------------11------10-------|
E-----------------------------|---------------------------------|
  3        4  3    4        3   4  3    2   3  4  3    4  3
  p  i m i m  i    m  a m i p   p  i  m a m i  p  i  m p  i  m




................................. VII.......................
E-----------8-10-11p10-8-11p10-8-|------------------------------|
B--------10----------------------|-------8----------------------|
G------8-------------------------|-----7---7--------7-----7-----|
D---10---------------------------|---9-------9----9-----9-------|
A-9------------------------------|10-----------10-----8---------|
E--------------------------------|------------------------------|
  2 3    4    3  4  3    4  3     4  3   2   3 4  3   2 3
  p p  i m  i m  i     m i     m  p  i m a m i p  i m p i m



 VI..........................    V..............................
E---------6-8-9p8-6-9p8-6-----|---------------------------------|
B-------8---------------------|---------6-----------------------|
G-----6-----------------------|-------5---5-------5-----5-------|
D---8-------------------------|-----7-------7---7-----7---------|
A-7---------------------------|---8-----------8-----7-----------|
E-----------------------------|---------------------------------|
  2 3   4   3 4 3   4 3           4 3   2   3 4 3   4 4
  p p i m i m i   m i   m         p i m a m i p i m p i m



                                    (hinge barres)
  .........................         II.......III.II
E-----------5------------5--|------------2-3-5p3-2-0------------|
B---------6------------6----|----------3-------------3-1--------|
G-------7------------7------|--------2--------------------------|
D-----7------------7--------|----0p4----------------------------|
A-5p8----------5p8----------|-----------------------------------|
E---------------------------|-----------------------------------|
    4 3 4 2      4 3 4 2           3   2 1 1 3 1 1   3 1
  p   p i m a  p   p i m a




(Pat yourself on the back right now; the worst is behind you)
E-----------7-7-7-|-8---------2-2-2-|-------3-------------------|
B-0---------6-6-6-|-5---------1-1-1-|-------0-------------------|
G-0-0-0-0-0-0-0-0-|-0-0-0-0-0-0-0-0-|-------0---------4-4-4-----|
D-----------------|-----------------|-----------------3-3-3-----|
A-----------------|-----------------|---------------------------|
E-----------------|-----------------|---------3-3-3-3-3-3-3-----|


 160
E-----------------|----------------|--------------3p2-3h5-------|
B-----------------|----------------|----------------------------|
G-5---------------|----------------|----------------------------|
D-2---------4-4-4-|5---4---5---4---|-5--------------------------|
A-----------3-3-3-|2---3---2---3---|-2--------------------------|
E-3-3-3-3-3-3-3-3-|3-3-3-3-3-3-3-3-|-3--------------------------|


                            165          I......................
E-3-------|---------------|---------|----------------|----------|
B---0-0-0-|-3p1---5p4-5h7-|-5-------|0--------------1|----------|
G---------|---------------|---1-1-1-|----2--4p2-1h2--|---4p2-1h2|
D---3-3-3-|-2-------------|---0-0-0-|----------------|3-3-------|
A---------|-3-------------|---------|3---------------|----------|
E---3-3-3-|---------------|---0-0-0-|5---------------|1-1-------|


...     I...............  170
E---------------|-------||--------------0---------------4-------|
B-1-------------|-1-----||----------0--------------3------------|
G-------4p2-1h2-|---4-2-||*-------1---1----------4---4----------|
D---2-2---------|-1-----||*-----2--------------2----------------|
A---------------|-------||--------------------------------------|
E---0-0---------|-1-----||----0--------------0------------------|
                                               2 3 2 3  4
                              p p i m i a    p p i m i  a

  V..........   I..........
E-----------5-------------2--||---0---------4h5-|-7------7h8----|
B---------------------1------||---0-----5h7-----|---9h10--------|
G-------5-----------2---2---*||---1-------------|---------------|
D-----7---7-------1---------*||---2-------------|---------------|
A---7------------------------||-----------------|---------------|
E-0-------------0------------||-0---------------|---------------|
    3 4   4         2   2 3             2 4 1 2   4 3 4  1 2
  p p i m i a   p p i m i a


                               176
E-10-------10h12-|-13---13-12-|-------10h12-13-12-10h12-8h10----|
B----12h13-------|------------|---------------------------------|
G----------------|------------|---------------------------------|
D----------------|------------|---------------------------------|
A----------------|------------|---------------------------------|
E----------------|------------|---------------------------------|
  4  3  4  1  3    4    4  3          


E-7h8-10-8-7h8-5h7-|-4h5h6h7-5-4---0-|--------1-----------------|
B------------------|-------------6---|------3-----3---0---------|
G------------------|-----------------|----------4---1-----1-----|
D------------------|-----------------|------------------3-------|
A------------------|-----------------|--------------------------|
E------------------|-----------------|--------------------------|



180
E-----------------|-------------|-0---4p0-7---|-10--------------|
B-----------------|---------0---|---0-------9-|-------------0---|
G-----------------|-------1---1-|-------------|--------1-2------|
D-0h3---0---------|-------------|-------------|----2-4----------|
A-----2-----2---0-|-----2-------|-------------|-----------------|
E---------4---1---|-0h4---------|-------------|-----------------|



                        185
E----------------------|-----------------|-0-0-3p1-0--|------0-3|
B-3p1-0-1----1p0---0---|---------------1-|-----------3|1---0----|
G---------2------2---1-|-2-----------2---|------------|2---1----|
D----------------------|---2---2---2-----|-----0------|2---2----|
A-0--------------------|-0---3---0-------|-3----------|---------|
E------------0---------|-----------------|------------|--0------|



                                               190
E-3p1-0-1----1p0---0---|----------------------|-----------------|
B---------3------3---1-|-5p3-2-3----3p1-0-1---|-1p0-3-0---1-0---|
G----------------------|---------4----------2-|---------2-----1-|
D-0--------------------|----------------------|-0-------2-------|
A------------3---------|-2----------0---------|-----------------|
E----------------------|----------------------|-------------0---|


  m
  p i p i p                                   
E-------------|--------------|------0-5h8-7-5|-4h5-6-7-4--------|
B-------------|--0---1/5---0-|----1----------|-----------5-6----|
G-2-----------| -1-------7---|--2------------|---------------7--|
D---2---2---- |--------------|---------------|-0----------------|
A-0---3---0---|--------------|0--------------|------------------|
E-------------|--0-----------|---------------|---------0--------|


            V....... VII...... VIII............         VII.....
E---------0|-------5---------7|-----------------8--|--7------7--|
B----------|8p6-5-6--10p9-7---|12p10-9-10-12-10----|6---9h10---9|
G-7-6-5----|------------------|--------------------|7---7-------|
D----------|------------------|--------------------|0-----------|
A-0--------|5--------7--------|8-------------------|----7-------|
E----------|------------------|--------------------|---------0--|
                                               (4)


            V....... VII...... VIII............     V.......   
E--5-8-5-0-|-------5---------7|-----------------8--|8--7-5-7-10-|
B----5-----|8p6-5-6--10p9-7---|12p10-9-10-12-10----|6-----------|
G--5---5---|------------------|--------------------|7-----------|
D----------|------------------|--------------------|5-----------|
A--0---0---|5--------7--------|8-------------------|------------|
E----------|------------------|--------------------|------------|
                                               (4)     4  4  4



 VIII......        IX...........  VII  V     206       V
E-10-8----8---12-|-12-11-9-11-11-|-10--8--|----8---7---5---4----|
B-8----12--------|-10------------|-7---5--|----6---6---5--(3)---|
G-9--------------|-11------------|--------|----7---7---5---4----|
D-10-------------|-9-------------|-7---7--|--------0------------|
A----------------|---------------|--------|----8-------7--------|
E----------------|---------------|--------|----------------0----|
        4     4       4    4                   

    
                                                  210
E-5-----------5--|4-----5-7---7--|5---8-------7-5|-4---4---5---7|
B----------------|---------------|---------------|--------------|
G-5-----------5--|4-----5-7---7--|5---9-------7-5|-4---4---5---7|
D----------------|---------------|---------------|--------------|
A-0-0-0-0-0-0-0-0|0-0-0-0-0-0-0-0|0-0-0-0-0-0-0-0|-0-0-0-0-0-0-0|
E----------------|---------------|---------------|--------------|
  2               2       4       2   2       4 2  2       2   4
  1               1       3       1   3       3 1  1       1   3


                                      213
E-5--------------4-|-5-------------4-|--5----5-----------------||
B----------------3-|---------------3-|-------------------------||
G-5----------------|-5---------------|--5----5-----------------||
D------------2-----|------------2----|------------7------------||
A-0--0h2h3h5-------|-0--0h2h3h5------|--0----0----0------------||
E----------------0-|---------------0-|-------------------------||
  4    1 2 4 1   4   4    1 2 4 1  4    4         3 
  3              2   3             2    3


APPENDIX:

Julian Bream's way of playing bars 51 and 52, he uses all rest
strokes for bar 51.  This version is the hardest but sounds better

  4  3  1  4  3  2  1 2  1 4  2  1   V................
E-13-12-10-------------------------|---------5h7-8p7-5-4h5-0----|
B----------13-12-10-9--------------|-------5--------------------|
G---------------------10-9---------|-----5----------------------|
D--------------------------12-10-9-|---7------------------------|
A----------------------------------|-0--------------------------|
E----------------------------------|----------------------------|
  m   i  m  i m  i  m i  m  i  m  i


Li Jie uses many more pull off's (sorry for the unofficial way 
of saying it) for speed.  This is similiar to the one posted in
the tab
  
  4  3  1  4  3  2  1 2    3  1    
E-13p12-10---------------0-------|-------0-5h7-8p7-5-4h5-0------|
B----------13p12-10-9------3p1-0-|-----1------------------------|
G---------------------10---------|---2--------------------------|
D--------------------------------|------------------------------|
A--------------------------------|-0----------------------------|
E--------------------------------|------------------------------|


******************************************************************************
******************************************************************************

Rondo - Dionisio Aguado (1784-1849)

transcribed by Jonny Hotnuts (1 December 2004)

Rondo

E||------------|----------------|------------------|--0--0--3-1-0---|
B||------------|--1--1-3-0--0-1-|----------------1-|--------------3-|
G||----------2-|----------------|--2-----------2---|----------------|
D||--------2~--|----------------|----2---2---2-----|--------0-------|
A||------------|--0-------------|--0---3---0-------|--3-------------|
E||------------|---------0------|------------------|----------------|


-----------0-3-|--3-1-0-1-1-0---0-|--0---------------|------------------|
--1-----0------|--------------4---|----3-2-3-3-1-0-1-|--1-0-3-0---1-0---|
--2-----1------|------------------|------------------|----------2-----1-|
--2-----2------|--0---------------|------------------|--0-------2-------|
---------------|----------3-------|--2-------0-------|------------------|
-----0---------|------------------|------------------|--------------0---|


--------------||---------0------|-------0-5-8-7-5-|--5-4-7-5-4-1-0---|
--------------||---0---1----3-0-|-----1-----------|----------------3-|
--2----------*||*--1------------|--2--------------|------------------|
----2---2----*||*---------------|-----------------|------------------|
--0---3---0---||----------------|--0--------------|------------------|
--------------||---0------------|-----------------|--0---------------|


-----------0--|--1-0-1-5-4-2-4-7-|--5-4-5-7-5--8--|--8--7--4-5-7-4-|
--3---2-1-----|------------------|----------------|--6-----3-------|
--------------|------------------|----------------|--7-----4-------|
--------------|--0-------2-------|--3-------------|--0-----2-------|
--0-----------|------------------|----------------|----------------|
--------------|------------------|----------------|------------0---|


--5--8--5-----||--12----10----------|-----5--------|--5--5-4-5-4-5-6-|
-----5--------||--10-------13-12-13-|-----5-----5--|-----------------|
--5-----5----*||--9-----------------|-----5--------|--5--5-4-5-4-5-6-|
-------------*||--10----------------|--------------|-----------------|
--0-----------||--0-----------------|--0-----0-----|--0--------------|
--------------||--------------------|--------------|-----------------|


--7---5-4----|--13---12-10----------|--4--7-----5--|--4-----------|
-------------|--12---------13-12-10-|--5-----4-----|--5--6--5-----|
--7---5-4----|--13------------------|--4-----5-----|--4--7--5--7--|
-------------|--12------------------|--------------|-----6--7--6--|
-------------|----------------------|--------------|-----------7--|
--0----------|----------------------|--------------|--------------|


-------------|------5---8---12---|--12----------10-7---|------5---8---12-0-|
-------------|----5---5---5------|-------------------9-|----5---5---5------|
--7---6-5----|------5---5------9-|-----9----9-9-9--7-9-|------5---7--------|
--7----------|--------------10---|-------12------------|--------------12---|
--0----------|--0----------------|---------------------|--0----------------|
-------------|-------------------|--0------------------|-------------------|


--12-----------10-7---|--5-----------5---|--7---7---7---7---|--8-------10------|
--------------------9-|----5---5---5---5-|----6---6---6---6-|------8-8-----8-8-|
-----9----9----9--7-9-|------5-------5---|--0---7---7---7---|--9-------10------|
-------12---12--------|----------7-------|------------------|--10------9-------|
----------------------|--0---------------|------------------|------------------|
--0-------------------|------------------|------------------|------------------|


--12---12-10----------|------13-12-10----------|-----12-10-8---------|
-------------13-12-13-|--10-----------13-12-10-|--8----------12-10-8-|
--9-------------------|--10--------------------|--9------------------|
--10------------------|------------------------|---------------------|
----------------------|--8---------------------|---------------------|
----------------------|------------------------|--8------------------|


---------10----8---7-|--8--------|--12----15----|--9----------|
--10--10----8----6---|--5--------|--11----------|--8------10--|
--10--10----9----7---|--5--------|--12----------|--9----------|
-----------------5---|-----------|--11----------|--7----------|
--8---8-----10-------|-----------|--------------|-------------|
---------------------|-----------|--------------|-------------|


--10---------12-------|--13--------12-10--|--8-----17----|--11----------|
----------10-------10-|---------10--------|--10----------|--10------12--|
------10--------10----|------10-------10--|--8-----------|--11----------|
--12---------10-------|--12---------------|--------------|--9-----------|
----------------------|-------------------|--------------|--------------|
----------------------|-------------------|--------------|--------------|


--12--12--12-11-9-11-|--12----12--13-|--13-------------|--5-4-5-7-8-10-12-13-|
--9-------10---------|--9------------|--------9--9--9--|---------------------|
--9-------11---------|--9------------|-----13-7--7--7--|--5------------------|
---------------------|---------------|-----------------|--7------------------|
---------------------|---------------|--------7--7--7--|---------------------|
---------------------|---------------|-----------------|---------------------|


--13-------------|----------7-8-8-7----|-----------5-3-1-|--1-------1-0---|
--------9--9--9--|--10-9-10---------10-|--10-------------|-----1--1-----4-|
-----13-7--7--7--|---------------------|------5--5-------|-----2--2-------|
-----------------|--10-----------------|------7--7-------|-----3--3-------|
--------7--7--7--|---------------------|------8--8-------|----------------|
-----------------|---------------------|-----------------|----------------|


--------------|--0-------0-3-7-3-0-10-7-0-|--13-12-10--------------------------|
--4--4--4--4--|--------0------------------|-----------13-12-10---------------0-|
-----2--2--2--|--1---1--------------------|--------------------12-10-9---------|
--------------|----2----------------------|----------------------------12-10---|
--------------|---------------------------|------------------------------------|
-----1--1--1--|--0------------------------|------------------------------------|


--------0-5-7-8-7-5-4-5---|------0-0---0-----0-----0-|
------1-----------------5-|--------------3-----------|
----2---------------------|--5-2-----2---------5-2---|
--------------------------|----------------5---------|
--0-----------------------|--0-----3-----2-----0-----|
--------------------------|--------------------------|


----------0-3-7-3-0-10-------|--13-12-10-------------------------|
--0-----0--------------12----|-----------13-12-10--------------0-|
--1---1-------------------12-|--------------------12-10-9----5---|
----2------------------------|----------------------------12-----|
-----------------------------|-----------------------------------|
--0--------------------------|-----------------------------------|


--------5-8-8-7---------0-|--------5-8-8-7---------0-|
------5-----------5-------|------5-----------5-------|
----5-----------7-----7---|----5-----------7-----7---|
--7-----------5-----------|--7-----------6-----------|
--------------------7-----|--------------------7-----|
--------------------------|--------------------------|


------0-5-8-8-------------|--------1-5-5-3-----------|
--------------8-0-------1-|------1-----------1---0-1-|
----2-------------5---3---|----2-----------3---------|
--3-----------------------|--3-----------2-----------|
--------------7-----3-----|--------------------3-----|
--------------------------|--------------------------|


--------1-3-5-5-3---0-----|----------------------------|
------1-----------6---3-1-|--0-1-3-1-0-----------------|
----2---------------------|------------2-0-2-0---------|
--3-----------------------|--------------------3-2--0--|
--------------------------|----------------------------|
--------------------------|----------------------------|


--------0-3-3-------------|----------3-3-------3-5-5-|
------1-----------0-6-8-8-|--------5---------2-------|
----0-----------0---------|------5---------2---------|
--------------------0-----|----5---------------2-----|
--3-----------2-----------|--------------4-----------|
--------------------------|--8-----------------------|


--------1-5-5-------3-5-5-|--------1-5-5-------5-7-7-|
------3-----------2-------|------3-----------4-------|
----2-----------2---------|----2-----------4---------|
--0-----------------2-----|--0-----------1-----4-----|
--------------4-----------|--------------------------|
--------------------------|--------------------------|


--------4-7-7-------5-7-7-|--------4-7-7-------5-7-7-|--4------4-4-5-7-7-8-10-|
------5-----------4-------|------5-----------4-------|-----6-7----------------|
----4-----------4---------|----4-----------4---------|------------------------|
--------------------4-----|--------------------4-----|--2---------------------|
--7-----------6-----------|--7-----------6-----------|------------------------|
--------------------------|--------------------------|------------------------|


--10--10--8---8---|--7-0-2-3-3-5-7-7-8-10-|--10-------------8-10-10-12-13-|
------9---10--10--|--9--------------------|--9---8-10-12-12---------------|
--------------8---|--9--------------------|-------------------------------|
----------7-------|-----------------------|-------------------------------|
------7-----------|-----------------------|--7----------------------------|
------------------|-----------------------|-------------------------------|


--13--------|--13--12-10-12--12--|--10--12-10-8--8--|--7--7--------|
--12--------|--12------------10--|------------------|--6--6--9--9--|
------------|--------------------|--9------------9--|--7--7--7--7--|
--12--------|--12------------10--|--9------------7--|--0-----9--9--|
--11--------|--------------------|------------------|--------7-----|
------------|--------------------|------------------|-----7-----0--|


--5-----------5---|--4-----5-7---7---|--5---8-------7-5-|--4---4---5---7---|
------------------|------------------|------------------|--0---------------|
--5-----------5---|--4-----5-7---7---|--5---9-------7-5-|------4---5---7---|
------------------|------------------|------------------|------------------|
--0-0-0-0-0-0-0-0-|--0-0-0-0-0-0-0-0-|----0---0-0-0-----|--0-0-0-0-0-0-0-0-|
------------------|------------------|------------------|------------------|


--7---5-------5---|--4-----5-7---7---|--5---8-------7-5-|--4---4---5---7---|
--0---0---1---3---|------------------|------------------|------------------|
------------------|--2-----5-7---7---|--5---7-------7-5-|------------------|
------------------|------------------|------------------|------------------|
--0-0-0-0-0-0-0-0-|--0-0-0-0-0-0-0-0-|--0-0-0-0-0-0-0-0-|--0-0-0-0-0-0-0-0-|
------------------|------------------|------------------|------------------|


--5-5-5-5-5-5-5-5-|--5-5-5-5-5-5-5-5-|--5-5-5-5-5-5-5-5-|--5-5-5-5-5-5-5-5-|
------------------|------------------|------------------|------------------|
--5-5-5-5-5-5-5-5-|--5-5-5-5-5-5-5-5-|--5-5-5-5-5-5-5-5-|--5-5-5-5-5-5-5-5-|
------------------|----------3-------|------------------|----------3-------|
--0-------------3-|--5-----7-----5---|--6---7---------3-|--5-----7-----7---|
------------5-7---|------------------|------------5-7---|------------------|


--5------8-7-5----|--8-7-5-8-7-5-8-7-5-8-7-5-|--4----13-13-13-|
------------------|--1-----------------------|----------------|
--5---------------|--------------------------|--4-------------|
------------------|--1-----------------------|--2-------------|
--6---------------|--------------------------|----------------|
------------------|--------------------------|----------------|


--13-10-10-10-10-7-7-7-|--7-4-4-4-4-1-1---|------------------|
-----------------------|----------------3-|--3-0-0-----------|
-----------------------|------------------|--------1-1-------|
-----------------------|------------------|------------3-3-0-|
-----------------------|------------------|------------------|
-----------------------|------------------|------------------|


--------------------------|--------------------------|
--------0-----------0-----|--------0-----------0-----|
------1---1-------1---1---|------1---1-------1---1---|
--0-3-------3-0-3---0---3-|--0-3-------3-0-3---0---3-|
--------------------------|--------------------------|
--------------------------|--------------------------|


--------------------------|--------------------------|
--------1-----------1-----|--------3-----------3-----|
------2---2-------0---2---|------1---1-------1---1---|
----2-------2---2-------2-|----2-------2---2-------2-|
--3-----------3-----3-----|--2-----------2-----2-----|
--------------------------|--------------------------|


--------------------0-----|--------1-----------3-----|
--------1---------2---2---|------3---3-------2---2---|
------2---2-----3-------3-|----2-------2---2-------2-|
----2-------2-------------|--------------------2-----|
--0-----------------------|--------------------------|
--------------3-----------|--1-----------0-----------|


--------1-----------1-----|------2-5-2-------2-5-2---|
------3---3-------3---3---|------------1---1-------1-|
----2-------2---2-------2-|----2---------------------|
--0-----------0-----0-----|--1-----------1-----0-----|
--------------------------|--------------------------|
--------------------------|--------------------------|


------0-4-0-------0-5-0---|------0-4-0-------0-5-0---|
----0-------0---1---------|----0-------0---1-------1-|
------------------------5-|--------------------------|
--2-----------2-----------|--2-----------2-----------|
--------------------------|--------------------------|
--------------------------|--------0-----------0-----|


------0-4-0-------0-5-0---|--4--------|--0---2-0-4-2-5-4-|--7-5-8-7-10-8-12-10-|
----0-------0---1-------1-|--5--------|----4-------------|---------------------|
--------------------------|--4--------|------------------|---------------------|
--2-----------2-----------|--2--------|------------------|---------------------|
--------------------------|-----------|------------------|---------------------|
--------0-----------0-----|-----------|------------------|---------------------|


--13-12-10-12-10-8-7-8-|--7-5-4-5-3-1-0-1-|--3-1-0-1-0---1---|
-----------------------|------------------|------------3---3-|
-----------------------|------------------|------------------|
-----------------------|------------------|------------------|
-----------------------|------------------|------------------|
-----------------------|------------------|------------------|


------------------|-----------|------------------|-----------------------|
--1-0-3-0-----0---|-----------|------------------|--0------0-------------|
----------2-1---1-|-----------|--------------4---|-----------------------|
------------------|--2--------|--2-1-4-2-6-4---6-|----7-10---12-10-14-12-|
------------------|-----------|------------------|-----------------------|
------------------|-----------|------------------|-----------------------|


----------------------|----------------------|------------------|
----------------------|----------------------|------------------|
--10-9-8-9-9----------|----------------------|----------------5-|
-------------12-11-12-|--12-10-9-10-10-9-8-9-|--7-----------7---|
----------------------|----------------------|----7---7---7-----|
----------------------|----------------------|------8---5-------|


--0--0--3-1-0---|-----------0-3-|--3-1-0-1-1-0---0-|--0---------------|
--------------3-|--1-----0------|--------------4---|----3-2-3-3-1-0-1-|
----------------|--2-----1------|------------------|------------------|
--------0-------|--2-----2------|------------------|------------------|
--3-------------|---------------|--2-------0-------|--2-------0-------|
----------------|-----0---------|------------------|------------------|


------------------|---------------|--------0------|-------0-5-8-7-5-|
--1-0-3-0---1-0---|---------------|--0---1----3-0-|-----1-----------|
----------2-----1-|--2------------|--1------------|--2--------------|
--0-------2-------|----2---2------|---------------|-----------------|
------------------|--0---3---0----|---------------|--0--------------|
--------------0---|---------------|--0------------|-----------------|


--5-4-7-5-4-------|-----------0--|--1-0-1-5-4-2-4-7-|--5-4-5-7-5--8--|
------------6-5-3-|--3---2-1-----|------------------|----------------|
------------------|--------------|------------------|----------------|
------------------|--------------|--0-------2-------|--3-------------|
------------------|--0-----------|------------------|----------------|
--0---------------|--------------|------------------|----------------|


--8--7----5-7-4-|--5--8--5----|--3----7----|--8-------5-7-8-10-|
--6-----9-------|-----5-------|--5----6----|--------8----------|
--7-----7-------|--5-----5----|--5----7----|--9----------------|
--0-----9-------|-------------|-------5----|--10---------------|
--------7-------|--0-----0----|--3---------|-------------------|
------------0---|-------------|------------|-------------------|


--12---------12-10-8-|--13---------13-10-7-|--------------|------8-12-10-8-7-5-|
------8---8----------|------8---8----------|--8--8--7--6--|--5-8---------------|
------9---9----------|------10--10---------|-----0-----4--|--5-----------------|
------10--10---------|------9---9----------|--------7-----|--------------------|
---------------------|---------------------|--------------|--------------------|
---------------------|---------------------|--------------|--------------------|


--5-3-2-3-2-3-1-3-|-------8-12-10-8-7----|--5-3-2-3-2-3-1-3-|
--------------0---|-----8-------------10-|--------------0---|
------0---2-------|--9-------------------|------0---2-------|
------------------|--10------------------|------------------|
------------------|----------------------|------------------|
------------------|----------------------|------------------|


---------8-12-12------12-----10-|--------5-8-8-----5-----7-|
-------8------------------------|------5-------------------|
-----9--------------9------7----|----5-----------5-----4---|
--10-------------10------9------|--7-----------7-----5-----|
--------------------------------|--------------------------|
--------------------------------|--------------------------|


----------5-5-----5-----3-|----------1-1-----1-----0-|------------------|
--------6-----------------|--------3-----------------|--3-----------0---|
------5---------2-----0---|------2-------------------|----0---0---0---0-|
----7---------3-----2-----|--0-3---------0-3-----2---|------4---4---3---|
--8-----------------------|--------------------3-----|--2---------------|
--------------------------|--------------------------|--------------3---|


--------------0---|--3---------------|--------------0---|-----5-3-0--5-3-|
--1-----1-3-------|------------------|--1---1---3-------|--3------1------|
------0-----0-0-0-|----0---0---0---0-|----0---0---0-0-0-|--4-------------|
----2-----3-------|--0---4---4---3---|--2---2---3-------|----------------|
--3-------2---3---|------------------|--3-------2---3---|----------------|
------------------|--3-----------3---|------------------|--3------3------|


----3-2-3-0-3-2-3-|-------------|--0-----0-1-2-3-|----------------|
--3-------1-------|-------3--3--|----------------|--1-----3-1-0-1-|
--4---------------|-------4--4--|-----0------0---|-----0------0---|
------------------|-------5--5--|--2-----2-------|--2-----2-------|
------------------|-------------|--3-------------|--3-------------|
--3-------3-------|--3----------|----------------|----------------|


--------0--1--|--------0--1--|--3-----0-----|--5-----3--3--|--2-----1--1--|
--3--3--------|--3--3--------|-----------1--|-----1-----2--|-----3-----0--|
-----0-----0--|-----0-----0--|-----0--------|--2-----2-----|--2-----0-----|
--2-----3-----|--3-----3-----|--2--------2--|--3-----------|--0-----------|
--2-----------|--2-----------|--3-----------|--------0-----|--------------|
--------------|--------------|--------------|--------------|--------3-----|


--0--8-----5--|--------------------------|--0------0-1-2-3-|----------------|
--1-----3-----|--1---3---0------0-1-3----|-------------0---|--1-------3-1-1-|
--------------|--------5----0-2----------|-------0---------|--------0---0---|
--------3-----|--2-------0---------------|-----2---2-------|-----2----2-----|
--3-----------|--------------------------|--3--------------|--3-------------|
--------1-----|--3-------3---------------|-----------------|----------------|


--------0--1--|--3---0------|--5-----3--3--|-----10--7--15--|--8-------0--7---|
--3--3--------|--------1----|-----------2--|--7------8------|--8---10--8------|
-----0-----0--|------0------|--2--5--2-----|--7-------------|------10--0--10--|
--3-----3-----|--2-----2----|--3-----------|--0-------------|--10---------5---|
--2-----------|--3----------|--------0-----|----------------|------8----------|
--------------|-------------|--------------|----------------|-----------------|


----0---8-12-10-8-7-8---0---|----1-3---1-3---1-3---1-3-|
--1---8---------------8---1-|--0-----3-----0-----0-----|
----------------------------|--------------------------|
----------------------------|--------------------------|
----------------------------|--------------------------|
----------------------------|--------------------------|


------0-5-8-7-5-4-5-0-----|------0-----0-----0-----0-|
----1-----------------1---|----3---0-3-----3-----3---|
--2---------------------2-|--1-----------------------|
--------------------------|--------------6-----2-----|
--------------------------|--------------------------|
--------------------------|--------------------------|


--------1-5-3-1-0-1-------|--------------------------|
------1-------------1-----|------1-----1-----1-----1-|
----2-----------------2---|----3---0-3-----3-----3---|
--3---------------------3-|--2-----------2-----------|
--------------------------|--------------------3-----|
--------------------------|--------------------------|


--------1-5-5-------2-5-5-|--------3-7-7-------4-7-7-|
------1-----------1-------|------3---------0---------|
----2-----------2---------|----4-------------7-------|
--3-----------------------|--5-----------------------|
--------------5-----------|--------------7-----------|
--------------------------|--------------------------|


--------5-8-8-------7-10-10-|--------9-12-12----------12-15-15-|
------5-----------6---------|------8---------------11----------|
----5-----------7-----------|----9--------------12-------------|
--7-----------6-------------|--8-------------11----------------|
----------------------------|----------------------------------|
----------------------------|----------------------------------|


-----------10-13-12-10-9-10---------|--------7-10-10--------10-13-13-|
--------10------------------10------|------6--------------9----------|
-----10------------------------10-7-|----7-------------10------------|
--12--------------------------------|--6-------------9---------------|
------------------------------------|--------------------------------|
------------------------------------|--------------------------------|


---------8-11-10-8-7-8---0---|--------4---------------0-|
-------8---------------8-----|------4---4-------4---3---|
-----8---------------------5-|----5-------5---5---------|
--10-------------------------|--6-----------6-----5-----|
-----------------------------|--------------------------|
-----------------------------|--------------------------|


--------5-8-10-11-10----10-8-7-|--------3-----------------|
------4--------------12--------|------3---3-0---0-3---0-3-|
----5--------------------------|----4---------0-----0-----|
--4----------------------------|--5-----------------------|
-------------------------------|--------------------------|
-------------------------------|--------------------------|


--------3-6-8-9-8-6-9-8-6-|--------------------------|
------2-------------------|--------6---------1-----1-|
----3---------------------|------5---5-----2-----2---|
--2-----------------------|----7-------7-3-----2-----|
--------------------------|--8-----------------------|
--------------------------|--------------------------|


----------1-5---------1-5-|----------1-3-5-3-1-0-----|------------7-7-7-|
--------3-----------3-----|--------3-------------3-1-|--0---------6-6-6-|
------2-----------2-------|------2-------------------|--0-0-0-0-0-0-0-0-|
--0-3---------0-3---------|--0-4---------------------|------------------|
--------------------------|--------------------------|------------------|
--------------------------|--------------------------|------------------|


--8-------2-2-2-|--3--------------|------------------|------------------|
--5-------1-1-1-|--0--------0-0-0-|--1---------------|------------------|
--0-0-0-0-0-0-0-|--0--------------|------------------|--0-------0-------|
----------------|-----------3-3-3-|--2---------4-4-4-|------4-------4---|
----------------|-----------------|------------3-3-3-|--2---3---2---3---|
----------------|-----3-3-3-3-3-3-|--3-3-3-3-3-3-3-3-|--3-3-3-3-3-3-3-3-|


--------3-2-3-5-|--3-----------|--------------0-1-|--0-----------|
----------------|-----0--0--0--|--3--1----4-4-----|--------------|
--0-------------|--------------|------------------|-----1--1--1--|
----------------|-----3--3--3--|--2---------------|-----0--0--0--|
--2--2----------|--------------|--3---------------|--------------|
--3-------------|-----3--3--3--|------------------|-----0--0--0--|


-----------------|------------------|------------------|-------------|
--0------0-------|--1-------0-------|--1-------0-------|--1----0-----|
-----2-----2-1-2-|------------2-1-2-|------------2-1-2-|----------2--|
-----------------|-----3--3---------|-----2--2---------|--1----------|
--3--------------|------------------|------------------|-------------|
--5--------------|-----1--1---------|-----0--0---------|--1----------|


------------0-----------3-|------------5-----------2-|
--------0---------0-3-0---|--------1-----------1-----|
------1---1---------------|------2---2-------2---2---|
----2-----------3---------|----2-----------1---------|
--------------------------|--------------------------|
--0-----------0-----------|--0-----------0-----------|


------------0-----------3-|------------5-----------2-|-------0--0-2-4-5-|
--------0---------0-3-0---|--------1-----------1-----|-------0----------|
------1---1---------------|------2---2-------2---2---|-------1----------|
----2-----------2---------|----2-----------1---------|-------2----------|
--------------------------|--------------------------|------------------|
--0-----------0-----------|--0-----------0-----------|--0---------------|


--7------4-5-7-8-|--10------7-8-10-12-|--13----13--12--|
-----------------|--------------------|----------------|
-----------------|--------------------|----------------|
-----------------|--------------------|----------------|
-----------------|--------------------|----------------|
-----------------|--------------------|----------------|


--10-12-13-12-10-12----10-|--------10-8-7-8-5-7-|--4-5-6-7-5-4-----|
--------------------13----|--12-13--------------|--------------6-5-|
--------------------------|---------------------|------------------|
--------------------------|---------------------|------------------|
--------------------------|---------------------|------------------|
--------------------------|---------------------|------------------|


----1-------------|------------------|--------------|--0-------4---0--7---3---|
--3---0-3---0-----|------------------|----------0---|------0------------------|
----------1-----1-|------------------|--------1---1-|-------------------------|
--------------3---|--0-3---0---------|------0-------|-------------------------|
------------------|------2-----2---3-|--------------|-------------------------|
------------------|----------4---1---|--0-4---------|-------------------------|


--10-----------|------------------|------------------|--------3-1-0---|
-------------0-|--3-0-1---0---0---|------------------|--5--5--------3-|
---------------|--5-----2---2---1-|--2-------------5-|----------------|
-------4-6-7---|------------------|--------------7---|--------0-------|
-----7---------|--0---------------|--0-7---7-0-7-----|--3-------------|
---------------|----------0-------|------8-----------|----------------|


----------0-3-|--1-0-1---0---0---|--0-----------------|------------------|
--1----0------|--------3---4---1-|----3-2-3-0-1-0-1---|--1-0-3-0---1-0---|
--2----1------|------------------|------------------2-|----------2-----1-|
--2----2------|--0---------------|--------------------|--0-------2-------|
--------------|----------3-------|--2---------0-------|------------------|
--------------|------------------|--------------------|--------------0---|


---------------|--------0------|--------0-5-8-7-5-|--4-5-6-7-4-0-1---|
---------------|--0---1----3-0-|------1-----------|----------------3-|
--2------------|--1------------|----2-------------|------------------|
----2---2------|---------------|------------------|------------------|
--0---3---0----|---------------|--0---------------|--5---------------|
---------------|--0------------|------------------|----------0-------|


-----------0--|--7-5-4-5-5-2-4-7-|--5---5-7-5--8--|--8--7--5-2-3-7-|
--3---2-1-----|------------------|----9-----------|--8-----0-------|
--------------|------------------|----------------|--7-----7-------|
--------------|--0---------------|----------------|----------------|
--0-----------|----------7-------|--8-------------|--5-----7-------|
--------------|------------------|----------------|------------0---|


--5--8--5--0--|--------5-5-4-2-4-7-|--7-5-4-5-7-5--8--|--8--7-5-7--10--|
--1--5--1-----|--6-5-6-------------|------------------|--6-------------|
--------------|--------------------|------------------|--7-------------|
--------------|--------------------|------------------|----------------|
--------------|--5-------7---------|--8---------------|----------------|
--5-----------|--------------------|------------------|----------------|


--10--8-7-8--10--|--12--11-9-11--11--|--10----8----|--8--7--5--4--|
-----------------|--10---------------|-------------|--6--6--5--3--|
--9--------------|--11---------------|--10----9----|--7--7--5--4--|
--10-------------|--9----------------|--6-----7----|-----0--------|
-----------------|-------------------|-------------|--8-----7-----|
-----------------|-------------------|-------------|-----------0--|


-----5-----5--|--4-----5-7---7---|--5---8-------7-5-|--4---4---5---7---|
--------------|------------------|------5-----------|------------------|
-----5-----5--|--4-----5-7---7---|--5-----------7-5-|--4---4---5---7---|
--------------|------------------|------------------|------------------|
--0--0--0--0--|--0-0-0-0-0-0-0-0-|--0-0-0-0-0-0-0-0-|--0-0-0-0-0-0-0-0-|
--------------|------------------|------------------|------------------|


--5-------------4--|--5-------------4--|--5----5----|--5----10----|--5------||
----------------3--|----------------3--|------------|-------9-----|---------||
--5----------------|--5----------------|--5----5----|--5----7-----|--5------||
-----------0-2-----|-----------0-2-----|------------|-------6-----|--7------||
--0--0-2-3---------|--0--0-2-3---------|--0---------|-------7-----|--0------||
----------------0--|----------------0--|-------5----|--5----0-----|---------||


----------||
----------||
----------||
----------||
----------||
----------||


comments
We did not receive enough feedback on this tab! Please rate:
print report bad tab
1 2 3 4 5
I want to post or [tab]
guest
You may want to rate the tab now too:
select rating
Please do not post tabs as comments. Select "correction" instead!