Oops, an error
Loading. Please wait.

Aint Afraid To Die Bass Tab

ver1
ver1

Whole song

Interactive

More versions @911Tabs.com
2,567 views 3 this week
no commentswrite comment
1 2 3 4 5
please rate
Autoscroll
+/-
esc
set tempo
stop
Hey! There's an official Ultimate Guitar app which is ideal
for learning songs when you're away from computer. Get the app
WARNING: You are trying to view
                                    content from Ultimate-Guitar.com
                                    in an unauthorized application,
                                    which is prohibited.

                                    Please use an official Ultimate
                                    Guitar Tabs application for iPhone,
                                    iPad or Android to access legitimate
                                    chords, guitar, bass, and drum tabs
                                    from Ultimate-Guitar.com database.

                                    Type "ultimate guitar tabs" in Apple
                                    App Store's or Android Market's
                                    search to find the application.
Artist: Dir en Grey
Title: Ain't Afraid to die
Album: Beast of Blood Single

Tuning: Standard E A D G
Tabbed by: ynxyg (aim: ynxyg \ yn_yg@hotmail.com)
                                                        

This is one of Dir en Greys best songs so play it with as emotion as you can.
 

Piano and vocal intro
 
G||------------------|------------------|------------------|------------------|
D||------------------|------------------|------------------|------------------|
A||------------------|------------------|------------------|------------------|
E||------------------|------------------|------------------|------------------|

 1:30                                                                 
--------------------|-----------------------|--------------------|
--------------------|-----------------------|--------------------|
--------------------|-----------------------|--------------------|
--3--------------3--|--5--------5--3--5--5--|--7--------------7--|

                                                                       
----------------------------|--------------------|--------------------|
------------------10h12-----|--------------------|--------------------|
-------------9h10-------12--|--------------------|--------------------|
--8-------------------------|--3--------------3--|--5------------2----|


---------------------|------------------7h6--------|--------------------|
---------------------|--------------9-------9h7----|--------------------|
---------------------|----5----9--5-------------9--|--------------------|
--7--------------5h7-|--7----7---------------------|--3--------------3--|


-----------------------|--------------------|----------------------------|
-----------------------|--------------------|------------------10h12-----|
-----------------------|--------------------|-------------9h10-------12--|
--5--------5--3--5--5--|--7--------------7--|--8-------------------------|


--------------------|--------------------|-------------------|
--------------------|--------------------|-------------------|
--------------------|--------------------|-------------------|
--3--------------3--|--5------------2----|--7----------------|


-------------------|------------------|------------------|------------------|
-------------------|------------------|------------------|------------------|
-------------------|------------------|------------------|------------------|
--7----------------|------------------|------------------|------------------|


------------------|------------------|------------------|------------------|
------------------|------------------|------------------|------------------|
------------------|------------------|------------------|------------------|
------------------|------------------|------------------|------------------|


------------------|------------------|------------------|------------------|
------------------|------------------|------------------|------------------|
------------------|------------------|------------------|------------------|
------------------|------------------|------------------|------------------|


                    3:02                                                       
------------------|---------------------------|---------------------------|
------------------|---------------------------|---------------------------|
------------------|--5--5--5--5-5-5--5--5--5--|--5--5--5--5-5-5--5--5--4--|
------------------|---------------------------|---------------------------|


                                                        
---------------------------|---------------------------|
---------------------------|---------------------------|
---------------------------|---------------------------|
--5--5--5--5-5-5--5--5--5--|--5--5--5--5-5-5--5--5--6--|


                                                        
---------------------------|---------------------------|
---------------------------|---------------------------|
---------------------------|---------------------------|
--7--7--7--7-7-7--7--7--7--|--7--7--7--7-7-7--7--7--7--|


                                                        
---------------------------|---------------------------|
---------------------------|---------------------------|
---------------------------|------------------------4--|
--7--7--7--7-7-7--7--7--7--|--7--7--7--7-7-7--7--7-----|


                                                        
---------------------------|---------------------------|
---------------------------|---------------------------|
--5--5--5--5-5-5--5--5--5--|--5--5--5--5-5-5--5--5--4--|
---------------------------|---------------------------|


                                                        
---------------------------|---------------------------|
------------------------7--|--7--7-7-7-----------------|
---------------------------|------------7-----4--------|
--5--5--5--5-5-5--5--5-----|---------------5-----5--6--|


                                                       
---------------------------|--------------------------|
---------------------------|--------------------4--4--|
---------------------------|--------4--4--5--5--------|
--7--7--7--7-7-7--7--7--7--|--7--7--------------------|


                                                                             
--------------------------|----------------6----7-6----|--------------------|
--------------------------|-----------7--7----7-----7--|--------------------|
-----------5--5--5--------|----------------------------|--------------------|
--3--3--3-----------3--4--|--5--5--5-------------------|--3--------------3--|


                                                                          
-----------------------|--------------------|----------------------------|
-----------------------|--------------------|------------------10h12-----|
-----------------------|--------------------|-------------9h10-------12--|
--5--------5--3--5--5--|--7--------------7--|--8-------------------------|


                                                               
--------------------|--------------------|--------------------|
--------------------|--------------------|--------------------|
--------------------|--------------------|-----------------9--|
--3--------------3--|--5------------2----|--7-----------------|


                                                        
------------------------|------------------------------|
--9----------7h9--------|------------------------------|
-----------------7h9----|--5--5-5-5--5-5-5--5-5-5--5-5-|
---------------------7--|------------------------------|


                                                           
----------------------------|-----------------------------|
------------7-7-7-----------|--------------------------7--|
--5--5-5-5---------7--5--4--|-----------------------------|
----------------------------|--5--5-5-5--5-5-5--5-5-5-----|


                                                                
----6--------------------------|-------------------------------|
--7----7-5--4-5--5-4-4---------|-------------------------------|
-----------------------7-7-----|-------------------------------|
---------------------------5-6-|--7--7-7-7--5h7-7-7-7--5h7-5h7-|


                                                                
-------------------------------|-------------------------------|
-------------------------------|-----------------------------5-|
-------------------------------|-------------------------------|
--5h7-7-7-7--5h7-7-7-7--5h7-5--|--3-3-3-3-3--3-3-3--3-3-3--3---|


                                                           
---------------------------|------------------------------|
-------------5--5----------|------------------------------|
------------------5--7-----|--5--5-5-5--5-5-5--5-5-5--5-5-|
--3--3--3--3------------5--|------------------------------|


                                                           
----------------------------|-----------------------------|
------------7-7-7-----------|--------------------------7--|
--5--5-5-5---------7--5--4--|-----------------------------|
----------------------------|--5--5-5-5--5-5-5--5-5-5-----|


                                                                
----6----9--6----9-7-6-7-6-----|-------------------------------|
--7----7------7----------------|-------------------------------|
-------------------------------|-------------------------------|
---------------------------5-6-|--7--7-7-7--5h7-7-7-7--5h7-5h7-|


                                                                
-------------------------------|-------------------------------|
-------------------------------|-------------------------------|
-------------------------------|-------------------------------|
--5h7-7-7-7--5h7-7-7-7--5h7-5--|--3-3-3-3-3--3-3-3--3-3-3--3-3-|


                                                           
------------------------6--|------------------------------|
--------------5------7-----|------------------------------|
------------------7--------|--5--5-5-5--5-5-5--5-5-5--5-5-|
--3--3-3-3--3--------------|------------------------------|


                                                            
----------------------------|------------------------------|
----------------------------|------------------------------|
--5--5-5-5--5-5-5--7--5--4--|------------------------------|
----------------------------|--5--5-5-5--5-5-5--5-5-5--5-5-|


                                                           
----------------------------|-----------------------------|
----------------------------|-----------------------------|
----------------------------|------------4--4-4-4--4--4-4-|
--5--5-5-5--5-5-5--5--4--2--|--7--7-7-7-------------------|


                                                           
-----------------------------|----------------------------|
-------------------------4h5-|--5-------------------------|
--5--5-5-5--7--7-7-7--7------|----------------------------|
-----------------------------|-----3-3-3--3-3-3--0--2--3--|


                                                        
----------------------------|--------------------------|
------------5-5-5--4--------|--------------------------|
----------------------7--4--|--5--5--5--5--5--5--5--5--|
--5--5-5-5------------------|--------------------------|


                                                            
--------------------------|--------------------------------|
--------------------------|--------------------------------|
--5--5--5--5--5--5--5--5--|--7-7-7-7-7--7-7-7-7-7--7-7-7-7-|
--------------------------|--------------------------------|


                                                                  
--------------------------------|--------------------------------|
--------------------------------|--4-4-4-4-4--4-4-4-4-4--4-4-4-4-|
--7-7-7-7-7--7-7-7-7-7--7-7-7-7-|--------------------------------|
--------------------------------|--------------------------------|


                                                                  
--------------------------------|--------------------------------|
--4-4-4-4-4--4-4-4-4-4--4-4-4-4-|--5-5-5-5-5--5-5-5-5-5--5-5-5-5-|
--------------------------------|--------------------------------|
--------------------------------|--------------------------------|


                                                               
--------------------------------|----------|------------------|
--7-7-7-7-7--7-7-7-7-7--7-7-7-7-|----------|------------------|
--------------------------------|----------|------------------|
--------------------------------|----------|------------------|
comments
We did not receive enough feedback on this tab! Please rate:
print report bad tab
1 2 3 4 5
I want to post or [tab]
guest
You may want to rate the tab now too:
select rating
Please do not post tabs as comments. Select "correction" instead!