Oops, an error
Loading. Please wait.

Amber Tab

ver1
ver1

Whole song

Interactive

More versions @911Tabs.com
1,439 views 3 this week
no commentswrite comment
1 2 3 4 5
excellent!
x 1
Autoscroll
+/-
esc
set tempo
stop
Contributor
Difficulty
Tuning
intermediate
D A D G B E
Hey! There's an official Ultimate Guitar app which is ideal
for learning songs when you're away from computer. Get the app
WARNING: You are trying to view
                                    content from Ultimate-Guitar.com
                                    in an unauthorized application,
                                    which is prohibited.

                                    Please use an official Ultimate
                                    Guitar Tabs application for iPhone,
                                    iPad or Android to access legitimate
                                    chords, guitar, bass, and drum tabs
                                    from Ultimate-Guitar.com database.

                                    Type "ultimate guitar tabs" in Apple
                                    App Store's or Android Market's
                                    search to find the application.
-------------------------------------------------------------------------------
                             Amber - Dir en grey
-------------------------------------------------------------------------------
Tabbed by: DeadxFreedom
Email: R_to_the_core@hotmail.co.uk

Tuning: Drop D / D A D G B E

Key: Em Tempo: 108 Time Signature: 4/4

Kaoru
                         Arpeggio.                         
     W                   E         E  S E  S S S E  E  E   
E||-------------------|-----------------------------------|
B||-------------------|-----------------------------------|
G||-------------------|---------------0-0--------------2--|
D||-------------------|--------------------------2--------|
A||-------------------|-----------------------------------|
D||-------------------|--0---------2-------0-L-2----2-----|


  E  E  S E  S S S E  E  E     E  E  S E  S S S E  E  E   
----------------------------|----------------------------|
----------------------------|----------------------------|
--------0-0--------------2--|--------0-0--------------2--|
-------------------2--------|-------------------2--------|
----------------------------|----------------------------|
--0--2-------0-L-2----2-----|--0--2-------0-L-2----2-----|


  E  E  S E  S S S E  E  E     E  E  S E  S S S E  E  E   
----------------------------|----------------------------|
----------------------------|----------------------------|
--------0-0--------------2--|--------0-0--------------2--|
-------------------2--------|-------------------2--------|
----------------------------|----------------------------|
--0--2-------0-L-2----2-----|--0--2-------0-L-2----2-----|


  E  E  S E  S S S E  E  E     E  E  S E  S S S E  E  E   
----------------------------|----------------------------|
----------------------------|----------------------------|
--------0-0--------------2--|--------0-0--------------2--|
-------------------2--------|-------------------2--------|
----------------------------|----------------------------|
--0--2-------0-L-2----2-----|--0--2-------0-L-2----2-----|


  E  E  S E  S S S E  E  E     E  E  S E  S S S E  E  E   
----------------------------|----------------------------|
----------------------------|----------------------------|
--------0-0--------------2--|--------0-0--------------2--|
-------------------2--------|-------------------2--------|
----------------------------|----------------------------|
--0--2-------0-L-2----2-----|--0--2-------0-L-2----2-----|


  E  E  S E  S S S E  E  E     E  E  S E  S S S E  E  E   
----------------------------|----------------------------|
----------------------------|----------------------------|
--------0-0--------------2--|--------0-0--------------2--|
-------------------2--------|-------------------2--------|
----------------------------|----------------------------|
--0--2-------0-L-2----2-----|--0--2-------0-L-2----2-----|


  E  E  S E  S S S E  E  E     E  E  S E  S S S E  E  E   
----------------------------|----------------------------|
----------------------------|----------------------------|
--------0-0--------------2--|--------0-0--------------2--|
-------------------2--------|-------------------2--------|
----------------------------|----------------------------|
--0--2-------0-L-2----2-----|--0--2-------0-L-2----2-----|


  E  E  S E  S S S E  E  E     E  E  S E  S S S E  E  E   
----------------------------|----------------------------|
----------------------------|----------------------------|
--------0-0--------------2--|--------0-0--------------2--|
-------------------2--------|-------------------2--------|
----------------------------|----------------------------|
--0--2-------0-L-2----2-----|--0--2-------0-L-2----2-----|


  E  E  S E  S S S E  E  E     E  E  S E  S E  S S S S E   
----------------------------|-----------------------------|
----------------------------|-----------------------------|
--------0-0-----------------|-----------------------------|
-------------------2--------|-----2----2----4----4-L---4--|
----------------------------|-----------------------------|
--0--2-------0-L-2----2--0--|--0-----0----0----0-----0----|


  E  E  S E  S E  S S S S E     E  E  S E  S S S E  E  E   
-----------------------------|----------------------------|
-----------------------------|----------------------------|
-----------------------------|--------0-0--------------2--|
-----5----5----4----4-L---4--|-------------------2--------|
-----------------------------|----------------------------|
--0-----0----0----0-----0----|--0--2-------0-L-2----2-----|


                                     ^                                 
  E  E  S E  S S S E  E  E     E  E  H.              W                 
----------------------------|---------------------|-------------------|
----------------------------|--------5------------|--L----------------|
--------0-0--------------2--|--------0------------|--L----------------|
-------------------2--------|--------4------------|--L----------------|
----------------------------|---------------------|-------------------|
--0--2-------0-L-2----2-----|--0--2---------------|-------------------|


  W                   W                   E  E  S E  S E  S S S S E   
-------------------|-------------------|-----------------------------|
--L----------------|--L----------------|-----------------------------|
--L----------------|--L----------------|-----------------------------|
--L----------------|--L----------------|-----2----2----4----4-L---4--|
-------------------|-------------------|-----------------------------|
-------------------|-------------------|--0-----0----0----0-----0----|


  E  E  S E  S E  S S S S E     E  E  S E  S E  S S S S E   
-----------------------------|-----------------------------|
-----------------------------|-----------------------------|
-----------------------------|-----------------------------|
-----5----5----4----4-L---4--|-----2----2----4----4-L---4--|
-----------------------------|-----------------------------|
--0-----0----0----0-----0----|--2-----2----2----2-----2----|


  E  E  S E  S E  S S S S E     E  E  S E  S E  S S E  E   
-----------------------------|----------------------------|
-----------------------------|----------------------------|
-----------------------------|----------------------------|
-----5----5----4----4-L---0--|----------4---------4-L-----|
-----------------------------|-----5---------5---------5--|
--2-----2----2----2-----2----|--5-----5----5----5---------|


  E  E  S E  S E  S S E  E     E  E  S E  S E  S S S S E   
----------------------------|-----------------------------|
----------------------------|-----------------------------|
----------------------------|-----------------------------|
----------4---------4-L-----|-----2----2----4----4-L---4--|
-----5---------5---------5--|-----------------------------|
--5-----5----5----5---------|--2-----2----2----2-----2----|


  E  E  S E  S E  S S S S E     E  E  S E  S E  S S E  E   
-----------------------------|----------------------------|
-----------------------------|----------------------------|
-----------------------------|----------------------------|
-----5----5----4----4-L---0--|----------4---------4-L-----|
-----------------------------|-----5---------5---------5--|
--2-----2----2----2-----2----|--5-----5----5----5---------|


  E  E  S E  S E  S S E  E       E  E  E  E  E  E  E  E   
----------------------------||---------------------------|
----------------------------||---------------------------|
----------------------------||*--------------------------|
----------4---------4-L-----||*--5--4--4--4--4--4--4--4--|
-----5---------5---------5--||---5--5--5--5--5--5--5--5--|
--5-----5----5----5---------||---5--5--5--5--5--5--5--5--|


  E  E  E  E  E  E  E  E     E  E  E  E  E  E  E  E   
--------------------------|--------------------------|
--------------------------|--------------------------|
--------------------------|--------------------------|
--4--4--4--4--4--4--4--4--|--4--4--4--2--2--2--2--2--|
--5--5--5--5--5--5--5--5--|--2--2--2--2--2--2--2--2--|
--5--5--5--5--5--5--5--5--|--2--2--2--2--2--2--2--2--|


  E  E  E  E  E  E  E  E     E  E  E  E  E  E  E  E   
--------------------------|--------------------------|
--------------------------|--------------------------|
--------------------------|--------------------------|
--2--2--2--2--2--2--2--2--|--5--4--4--4--4--4--4--4--|
--2--2--2--2--2--2--2--2--|--5--5--5--5--5--5--5--5--|
--2--2--2--2--2--2--2--2--|--5--5--5--5--5--5--5--5--|


  E  E  E  E  E  E  E  E     E  E  E  E  E  E  E  E   
--------------------------|--------------------------|
--------------------------|--------------------------|
--------------------------|--------------------------|
--4--4--4--4--4--4--4--4--|--4--4--4--2--2--2--2--2--|
--5--5--5--5--5--5--5--5--|--2--2--2--2--2--2--2--2--|
--5--5--5--5--5--5--5--5--|--2--2--2--2--2--2--2--2--|


  E  E  E  E  E  E  E  E       E  E  E  E  H         
---------------------------||-----------------------|
---------------------------||-----------------------|
--------------------------*||-----------------------|
--2--2--2--2--2--2--2--2--*||--4--4--4--2--L--------|
--2--2--2--2--2--2--2--2---||--2--2--2--2--L--------|
--2--2--2--2--2--2--2--2---||--2--2--2--2--L--------|


     Wah.                                                                
     E   S S S S S  S S S E  S S S S     E  S S S S S  S S S E  S S S S  
|------------------------------------|----------------------------------|
|------------------------------------|----------------------------------|
|*--12---9-9-x-x-7h-9-9-9----x-x-x-x-|--12--9-9-x-x-7h-9-9-9----x-x-x---|
|*-----------------------------------|----------------------------------|
|------------------------------------|----------------------------------|
|------------------------------------|----------------------------------|


   E  S S S S S  S S S S S S  S E     E  E  S E  S E  E  Q       
-----------------------------------|---------------------------||
-----------------------------------|---------------------------||
--12--9-9-x-x-7h-9-9-9-x-x-7h-9----|--------0-0----------0----*||
-----------------------------------|--------------------------*||
-----------------------------------|---------------------------||
-----------------------------------|--0--2-------0-L--2--------||


  E  E  E.  S E  E  S S E      E  E  S E  S S S E  E  E   
----------------------------|----------------------------|
----------------------------|----------------------------|
----------------------------|--------0-0--------------2--|
--------0-------------------|-------------------2--------|
--------------------x-x-x/--|----------------------------|
--0--2------0-L--2--x-x-x/--|--0--2-------0-L-2----2-----|


  E  E  S E  S S S E  E  E     E  E  S E  S S S E  E  E   
----------------------------|----------------------------|
----------------------------|----------------------------|
--------0-0--------------2--|--------0-0--------------2--|
-------------------2--------|-------------------2--------|
----------------------------|----------------------------|
--0--2-------0-L-2----2-----|--0--2-------0-L-2----2-----|


  E  E  S E  S S S E  E  E     E  E  S E  S S S E  E  E   
----------------------------|----------------------------|
----------------------------|----------------------------|
--------0-0--------------2--|--------0-0--------------2--|
-------------------2--------|-------------------2--------|
----------------------------|----------------------------|
--0--2-------0-L-2----2-----|--0--2-------0-L-2----2-----|


  E  E  S E  S S S E  E  E     E  E  S E  S S S E  E  E   
----------------------------|----------------------------|
----------------------------|----------------------------|
--------0-0--------------2--|--------0-0--------------2--|
-------------------2--------|-------------------2--------|
----------------------------|----------------------------|
--0--2-------0-L-2----2-----|--0--2-------0-L-2----2-----|


  E  E  S E  S S S E  E  E     E  E  S E  S S S E  E  E   
----------------------------|----------------------------|
----------------------------|----------------------------|
--------0-0--------------2--|--------0-0--------------2--|
-------------------2--------|-------------------2--------|
----------------------------|----------------------------|
--0--2-------0-L-2----2-----|--0--2-------0-L-2----2-----|


  E  E  S E  S S S E  E  E     E  E  S E  S S S E  E  E   
----------------------------|----------------------------|
----------------------------|----------------------------|
--------0-0--------------2--|--------0-0--------------2--|
-------------------2--------|-------------------2--------|
----------------------------|----------------------------|
--0--2-------0-L-2----2-----|--0--2-------0-L-2----2-----|


  E  E  S E  S S S E  E  E     E  E  S E  S E  S S S S E   
----------------------------|-----------------------------|
----------------------------|-----------------------------|
--------0-0--------------2--|-----------------------------|
-------------------2--------|-----2----2----4----4-L---4--|
----------------------------|-----------------------------|
--0--2-------0-L-2----2-----|--0-----0----0----0-----0----|


  E  E  S E  S E  S S S S E     E  E  S E  S E  S S S S E   
-----------------------------|-----------------------------|
-----------------------------|-----------------------------|
-----------------------------|-----------------------------|
-----5----5----4----4-L---4--|-----2----2----4----4-L---4--|
-----------------------------|-----------------------------|
--0-----0----0----0-----0----|--2-----2----2----2-----2----|


  E  E  S E  S E  S S S S E     E  E  S E  S E  S S E  E   
-----------------------------|----------------------------|
-----------------------------|----------------------------|
-----------------------------|----------------------------|
-----5----5----4----4-L---0--|----------4---------4-L-----|
-----------------------------|-----5---------5---------5--|
--2-----2----2----2-----2----|--5-----5----5----5---------|


  E  E  S E  S E  S S E  E     E  E  S E  S E  S S S S E   
----------------------------|-----------------------------|
----------------------------|-----------------------------|
----------------------------|-----------------------------|
----------4---------4-L-----|-----2----2----4----4-L---4--|
-----5---------5---------5--|-----------------------------|
--5-----5----5----5---------|--2-----2----2----2-----2----|


  E  E  S E  S E  S S S S E     E  E  S E  S E  S S E  E   
-----------------------------|----------------------------|
-----------------------------|----------------------------|
-----------------------------|----------------------------|
-----5----5----4----4-L---0--|----------4---------4-L-----|
-----------------------------|-----5---------5---------5--|
--2-----2----2----2-----2----|--5-----5----5----5---------|


  E  E  S E  S E  S S E  E       E  E  E  E  E  E  E  E   
----------------------------||---------------------------|
----------------------------||---------------------------|
----------------------------||*--------------------------|
----------4---------4-L-----||*--5--4--4--4--4--4--4--4--|
-----5---------5---------5--||---5--5--5--5--5--5--5--5--|
--5-----5----5----5---------||---5--5--5--5--5--5--5--5--|


  E  E  E  E  E  E  E  E     E  E  E  E  E  E  E  E   
--------------------------|--------------------------|
--------------------------|--------------------------|
--------------------------|--------------------------|
--4--4--4--4--4--4--4--4--|--4--4--4--2--2--2--2--2--|
--5--5--5--5--5--5--5--5--|--2--2--2--2--2--2--2--2--|
--5--5--5--5--5--5--5--5--|--2--2--2--2--2--2--2--2--|


  E  E  E  E  E  E  E  E     E  E  E  E  E  E  E  E   
--------------------------|--------------------------|
--------------------------|--------------------------|
--------------------------|--------------------------|
--2--2--2--2--2--2--2--2--|--5--4--4--4--4--4--4--4--|
--2--2--2--2--2--2--2--2--|--5--5--5--5--5--5--5--5--|
--2--2--2--2--2--2--2--2--|--5--5--5--5--5--5--5--5--|


  E  E  E  E  E  E  E  E     E  E  E  E  E  E  E  E   
--------------------------|--------------------------|
--------------------------|--------------------------|
--------------------------|--------------------------|
--4--4--4--4--4--4--4--4--|--4--4--4--2--2--2--2--2--|
--5--5--5--5--5--5--5--5--|--2--2--2--2--2--2--2--2--|
--5--5--5--5--5--5--5--5--|--2--2--2--2--2--2--2--2--|


  E  E  E  E  E  E  E  E       E  E  E  E  E  E  E  E   
---------------------------||--------------------------|
---------------------------||--------------------------|
--------------------------*||--------------------------|
--2--2--2--2--2--2--2--2--*||--2--2--2--2--2--2--2--2--|
--2--2--2--2--2--2--2--2---||--2--2--2--2--2--2--2--2--|
--2--2--2--2--2--2--2--2---||--2--2--2--2--2--2--2--2--|


  E  E  E  E  E  E  E  E     E  E  E  E  E  E  E  E   
--------------------------|--------------------------|
--------------------------|--------------------------|
--------------------------|--------------------------|
--5--4--4--4--4--4--4--4--|--4--4--4--4--4--4--4--4--|
--5--5--5--5--5--5--5--5--|--5--5--5--5--5--5--5--5--|
--5--5--5--5--5--5--5--5--|--5--5--5--5--5--5--5--5--|


  E  E  E  E  E  E  E  E     E  E  E  E  E  E  E  E   
--------------------------|--------------------------|
--------------------------|--------------------------|
--------------------------|--------------------------|
--4--4--4--2--2--2--2--2--|--2--2--2--2--2--2--2--2--|
--2--2--2--2--2--2--2--2--|--2--2--2--2--2--2--2--2--|
--2--2--2--2--2--2--2--2--|--2--2--2--2--2--2--2--2--|


  E  E  E  E  E  E  E  E     E  E  E  E  E  E  E  E   
--------------------------|--------------------------|
--------------------------|--------------------------|
--------------------------|--------------------------|
--5--4--4--4--4--4--4--4--|--4--4--4--4--4--4--4--4--|
--5--5--5--5--5--5--5--5--|--5--5--5--5--5--5--5--5--|
--5--5--5--5--5--5--5--5--|--5--5--5--5--5--5--5--5--|


  E  E  E  E  E  E  E  E     E  E  E  E  E  E  E  E   
--------------------------|--------------------------|
--------------------------|--------------------------|
--------------------------|--------------------------|
--4--4--4--2--2--2--2--2--|--2--2--2--2--2--2--2--2--|
--2--2--2--2--2--2--2--2--|--2--2--2--2--2--2--2--2--|
--2--2--2--2--2--2--2--2--|--2--2--2--2--2--2--2--2--|


  E  E  E  E  E  E  E  E     E  E  E  E  E  E  E  E   
--------------------------|--------------------------|
--------------------------|--------------------------|
--------------------------|--------------------------|
--5--4--4--4--4--4--4--4--|--4--4--4--4--4--4--4--4--|
--5--5--5--5--5--5--5--5--|--5--5--5--5--5--5--5--5--|
--5--5--5--5--5--5--5--5--|--5--5--5--5--5--5--5--5--|


  E  E  E  E  E  E  E  E     E  E  E  E  E  E  E  E   
--------------------------|--------------------------|
--------------------------|--------------------------|
--------------------------|--------------------------|
--4--4--4--2--2--2--2--2--|--2--2--2--2--2--2--2--2--|
--2--2--2--2--2--2--2--2--|--2--2--2--2--2--2--2--2--|
--2--2--2--2--2--2--2--2--|--2--2--2--2--2--2--2--2--|


  E  E  E  E  E  E  E  E     E  E  E  E  E  E  E  E   
--------------------------|--------------------------|
--------------------------|--------------------------|
--------------------------|--------------------------|
--5--4--4--4--4--4--4--4--|--4--4--4--4--4--4--4--4--|
--5--5--5--5--5--5--5--5--|--5--5--5--5--5--5--5--5--|
--5--5--5--5--5--5--5--5--|--5--5--5--5--5--5--5--5--|


  E  E  E  E  E  E  E  E     E  E  E  E  E  E  E  E   
--------------------------|--------------------------|
--------------------------|--------------------------|
--------------------------|--------------------------|
--4--4--4--2--2--2--2--2--|--2--2--2--2--2--2--2--2--|
--2--2--2--2--2--2--2--2--|--2--2--2--2--2--2--2--2--|
--2--2--2--2--2--2--2--2--|--2--2--2--2--2--2--2--2--|


  E  E  S E  S S S E  E  E     E  E  S E  S S S E  E  E   
----------------------------|----------------------------|
----------------------------|----------------------------|
--------0-0--------------2--|--------0-0--------------2--|
-------------------2--------|-------------------2--------|
----------------------------|----------------------------|
--0--2-------0-L-2----2-----|--0--2-------0-L-2----2-----|


  E  E  S E  S S S E  E  E     E  E  S E  S S S E  E  E   
----------------------------|----------------------------|
----------------------------|----------------------------|
--------0-0--------------2--|--------0-0--------------2--|
-------------------2--------|-------------------2--------|
----------------------------|----------------------------|
--0--2-------0-L-2----2-----|--0--2-------0-L-2----2-----|


  E  E  S E  S S S E  E  E     E  E  S E  S S S E  E  E   
----------------------------|----------------------------|
----------------------------|----------------------------|
--------0-0--------------2--|--------0-0--------------2--|
-------------------2--------|-------------------2--------|
----------------------------|----------------------------|
--0--2-------0-L-2----2-----|--0--2-------0-L-2----2-----|


  E  E  S E  S S S E  E  E     E  E  S E  S S S E  E  E   
----------------------------|----------------------------|
----------------------------|----------------------------|
--------0-0--------------2--|--------0-0--------------2--|
-------------------2--------|-------------------2--------|
----------------------------|----------------------------|
--0--2-------0-L-2----2-----|--0--2-------0-L-2----2-----|


  Tremolo                     
  E       E  E  E  H          
----------------------------||
----------------5--L--------||
--2s------4--4--------------||
----------------------------||
----------------------------||
----------------------------||




Duration Legend
---------------
W - whole
H - half
Q - quarter
E - 8th
S - 16th
T - 32nd
X - 64th
. - note dotted
|-n-|  - n-tuplets


Tablature Legend
----------------
L - tied note
x - dead note
g - grace note
(n) - ghost note
> - accentuded note
NH - natural harmonic
AH - artificial harmonic
TH - tapped harmonic
SH - semi harmonic
PH - pitch harmonic
h - hammer on
p - pull off
b - bend
br - bendRelease
pb - preBend
pbr - preBendRelease
brb - bendReleaseBend
\n/ - tremolo bar dip
\n - tremolo bar dive
-/n - tremolo bar Release up
/n\ - tremolo bar inverted dip
/n - tremolo bar return
-\n - tremolo bar Release down
S - shift slide
s - legato slide
/ -  slide into from below or out of upwards
\ -  slide into from above or out of downwards
~ - vibrato
W - wide vibrato
tr - trill
TP - tremolo picking
T - tapping
S - slap
P - pop
< - fade in
^ - brush up
v - brush down
comments
We did not receive enough feedback on this tab! Please rate:
print report bad tab
1 2 3 4 5
I want to post or [tab]
guest
You may want to rate the tab now too:
select rating
Please do not post tabs as comments. Select "correction" instead!