Oops, an error
Loading. Please wait.

Bottom Of The Death Valley Bass Tab

ver1
ver1

Whole song

Interactive

More versions @911Tabs.com
4,881 views 12 this week
2 commentsread comments
1 2 3 4 5
excellent!
x 2
Autoscroll
+/-
esc
set tempo
stop
Contributor
Hey! There's an official Ultimate Guitar app which is ideal
for learning songs when you're away from computer. Get the app
WARNING: You are trying to view
                                    content from Ultimate-Guitar.com
                                    in an unauthorized application,
                                    which is prohibited.

                                    Please use an official Ultimate
                                    Guitar Tabs application for iPhone,
                                    iPad or Android to access legitimate
                                    chords, guitar, bass, and drum tabs
                                    from Ultimate-Guitar.com database.

                                    Type "ultimate guitar tabs" in Apple
                                    App Store's or Android Market's
                                    search to find the application.
                          Bottom of the death valley                            


                                                                     Dir en grey
Toshiya



     H        Q    E  E      E  E  E  E  E  E  E  E   
F||-----------------------|--------9-----7--------5--|
C||-----------------------|-----9-----9-----7--------|
G||-------------------5S--|--7-----------------7-----|
D||-----------------------|--------------------------|


  E  E  E  E  E  E  E   E     E  E  E  E  E  E  E  E   
--L--------7--L------------|--------9-----7--------5--|
-----5-----------7---------|-----9-----9-----7--------|
--------7-----------5S--6--|--7-----------------7-----|
---------------------------|--------------------------|


  E  E  E  E  E  E  Q       E  E  E  E  E  E  E  E   
--L--------7--L----------|--------9-----7--------5--|
-----5-----------4-------|-----9-----9-----7--------|
--------7-----------5----|--7-----------------7-----|
-------------------------|--------------------------|


  E  E  E  E  E  E  E   E     E  E  E  E   E   E   E   E   
--L--------7--L------------|--------9-----12----------14--|
-----5-----------7---------|-----9-----9------12----------|
--------7-----------5S--6--|--7-------------------10------|
---------------------------|------------------------------|


   E   E   E   E   E   E   Q        E  E  E  E  E  E  E  E   
----------14----------14---------|--------9-----7--------5--|
--14----------14----------14\----|-----9-----9-----7--------|
------12----------12-------------|--7-----------------7-----|
---------------------------------|--------------------------|


  E  E  E  E  E  E  E   E     E  E  E  E  E  E  E  E   
--L--------7--L------------|--------9-----7--------5--|
-----5-----------7---------|-----9-----9-----7--------|
--------7-----------5S--6--|--7-----------------7-----|
---------------------------|--------------------------|


  E  E  E  E  E  E  Q       E  E  E  E  E  E  E  E   
--L--------7--L----------|--------9-----7--------5--|
-----5-----------4-------|-----9-----9-----7--------|
--------7-----------5----|--7-----------------7-----|
-------------------------|--------------------------|


                                                     NH                      
  E  E  E  E  E  E  E   E     E  E  E  E  E  E  E    E     W                 
--L--------7--L------------|--------9-----7--------<>7--|--L----------------|
-----5-----------7---------|-----9-----9-----7-----<>7--|--L----------------|
--------7-----------5S--6--|--7-----------------7-------|-------------------|
---------------------------|----------------------------|-------------------|


  W                   H        Q    E  E     E  E  E  E  E  E  E   E   
--L----------------|-------------------5--|--L--------7--L------------|
--L----------------|----------------------|-----5-----------7---------|
-------------------|----------------------|--------7-----------5S--6--|
-------------------|----------------------|---------------------------|


  E  E  E  E  E  E  E  E     E  E  E  E  E  E  Q       E  E  E  E  E  E  E  E   
--------9-----7--------5--|--L--------7--L----------|--------9-----7--------5--|
-----9-----9-----7--------|-----5-----------4-------|-----9-----9-----7--------|
--7-----------------7-----|--------7-----------5----|--7-----------------7-----|
--------------------------|-------------------------|--------------------------|


  E  E  E  E  E  E  E   E     E  E  E  E  E  E  E  E     W                 
--L--------7--L------------|--------9-----7--------7--|--L----------------|
-----5-----------7---------|-----9-----9-----7-----7--|--L----------------|
--------7-----------5S--6--|--7-----------------7-----|-------------------|
---------------------------|--------------------------|-------------------|


  E  E  E  S S E  E  E  E     E  E   Q     E  E  E  E   
---------------------------|---------------------------|
---------------------------|---------------------------|
------------------------3--|--L--3--10\----------------|
--0--0--0--0-0-3--3--3-----|---------------1--1--3--1--|


  E  E  E  S S E  E  E  E     E  E  E  E  E  E  E  E   
---------------------------|--------------------------|
---------------------------|--------------------------|
------------------------3--|--L--3-----3--------------|
--0--0--0--0-0-3--3--3-----|--------3-----1--1--3--1--|


  E  E  E  S S E  E  E  E     E  E   Q     E  E  E  E   
---------------------------|---------------------------|
---------------------------|---------------------------|
------------------------3--|--L--3--10\----------------|
--0--0--0--0-0-3--3--3-----|---------------1--1--3--1--|


  E  E  E  S S E  E  E  E     E  E  E  E  E  E  E  E  Q     
---------------------------|-------------------------------|
---------------------------|-------------------------------|
------------------------3--|--L--3-----3-------------------|
--0--0--0--0-0-3--3--3-----|--------3-----1--1--3--1-------|


  E  E  E  E  E  E  E  E     E  E  E  E  E  E  E  E   
--------------------------|--------------------------|
--------------------------|--------------------------|
-----------------------3--|--L--3-----3--------------|
--0--0--0--3--L--3--3-----|--------3-----1--1--3--1--|


  E  E  E  E  E  E  E  E     E  E  E  E  E  E  E  E   
--------------------------|--------------------------|
--------------------------|--------------------------|
-----------------------3--|--L--3-----3--------------|
--0--0--0--3--L--3--3-----|--------3-----1--1--3--1--|


  E  E  E  E  E  E  E  E     E  E  E  E  E  E  E  E   
--------------------------|--------------------------|
--------------------------|--------------------------|
-----------------------3--|--L--3-----3--------------|
--0--0--0--3--L--3--3-----|--------3-----1--1--3--1--|


  E  E  E  E  E  E  E  E     E  E  E  E  E  E  E  E   
--------------------------|--------------------------|
--------------------------|--------------------------|
-----------------------3--|--L--3-----5--L-----------|
--0--0--0--3--L--3--3-----|--------3--------5--3--5--|


  E  E  E  E  E  E  E  E     E  E  E  E  E  E  E  E   
--------------------------|--------------------------|
--------------------------|--------------------------|
-----------------------3--|--L--3-----3--------------|
--0--0--0--3--L--3--3-----|--------3-----1--1--3--1--|


  E  E  E  E  E  E  E  E     E  E  E  E  E  E  E  E   
--------------------------|--------------------------|
--------------------------|--------------------------|
-----------------------3--|--L--3-----3--------------|
--0--0--0--3--L--3--3-----|--------3-----1--1--3--1--|


  E  E  E  E  E  E  E  E     E  E  E  E  E  E  E  E   
--------------------------|--------------------------|
--------------------------|--------------------------|
-----------------------3--|--L--3-----3--------------|
--0--0--0--3--L--3--3-----|--------3-----1--1--3--1--|


  E  E  E  E  E  E  E  E     E  E  Q    E  E   Q      
--------------------------|--------------------------|
--------------------------|--------------------------|
--------------------------|--3--3--------------------|
--0--0--0--3--L--3--3--3--|-------------1--1--10\----|


  S S S S E  E  S S S S E  E     S S S S E  E  S S S S E  E   
------------------------------|------------------------------|
------------------------------|------------------------------|
----------------5-5-5-5-5-----|------------------------------|
--0-0-0-0-0-------------------|--3-3-3-3-3-----5-5-5-5-5-----|


  S S S S E  E  S S S S E  E     S S S S E  E  S S S S E  E   
------------------------------|------------------------------|
------------------------------|------------------------------|
----------------5-5-5-5-5-----|------------------------------|
--0-0-0-0-0-------------------|--3-3-3-3-3-----5-5-5-5-3--5--|


  S S S S E  E  S S S S E  E     S S S S E  E  S S S S E  E   
------------------------------|------------------------------|
------------------------------|------------------------------|
----------------5-5-5-5-5-----|------------------------------|
--0-0-0-0-0-------------------|--3-3-3-3-3-----5-5-5-5-5-----|


  S S S S E  E  S S S S E  E     S S S S E  E  E  E  E  E   
------------------------------|----------------------------|
------------------------------|----------------------------|
----------------5-5-5-5-5-----|----------------------------|
--0-0-0-0-0-------------------|--3-3-3-3-3--5--L--5--3--2--|


  S S S S E  E  S S S S E  E     S S S S E  E  S S S S E  E   
------------------------------|------------------------------|
------------------------------|------------------------------|
----------------5-5-5-5-5-----|------------------------------|
--0-0-0-0-0-------------------|--3-3-3-3-3-----5-5-5-5-5-----|


  S S S S E  E  S S S S E  E     S S S S E  E  S S S S E  E   
------------------------------|------------------------------|
------------------------------|------------------------------|
----------------5-5-5-5-5-----|------------------------------|
--0-0-0-0-0-------------------|--3-3-3-3-3-----5-5-5-5-3--5--|


  S S S S E  E  S S S S E  E     S S S S E  E  S S S S E  E   
------------------------------|------------------------------|
------------------------------|------------------------------|
----------------5-5-5-5-5-----|------------------------------|
--0-0-0-0-0-------------------|--3-3-3-3-3-----5-5-5-5-5-----|


  S S S S E  E  S S S S E  E     S S S S E  E  E  E  E  E   
------------------------------|----------------------------|
------------------------------|----------------------------|
----------------5-5-5-5-5-----|----------------------------|
--0-0-0-0-0-------------------|--3-3-3-3-3--5--L--5--3--2--|


  E  E  E  S S E  E  E  E     E  E  E  E  E  E  E  E   
---------------------------|--------------------------|
---------------------------|--------------------------|
------------------------3--|--L--3-----3--------------|
--0--0--0--0-0-3--3--3-----|--------3-----1--1--3--1--|


  E  E  E  S S E  E  E  E     E  E  E  E  E  E  E  E   
---------------------------|--------------------------|
---------------------------|--------------------------|
------------------------3--|--L--3-----3--------------|
--0--0--0--0-0-3--3--3-----|--------3-----1--1--3--1--|


  E  E  E  S S E  E  E  E     E  E  E  E  E  E  E  E   
---------------------------|--------------------------|
---------------------------|--------------------------|
------------------------3--|--L--3-----3--------------|
--0--0--0--0-0-3--3--3-----|--------3-----1--1--3--1--|


  E  E  E  S S E  E  E  E     E  E  E  E  S S E  E  E   
---------------------------|---------------------------|
---------------------------|---------------------------|
------------------------3--|--L--3-----5--5-5-5--3--5--|
--0--0--0--0-0-3--3--3-----|--------3------------------|


  E  E  E  S S E  E  E  E     E  E  E  E  E  E  E  E   
---------------------------|--------------------------|
---------------------------|--------------------------|
------------------------3--|--L--3-----3--------------|
--0--0--0--0-0-3--3--3-----|--------3-----1--1--3--1--|


  E  E  E  S S E  E  E  E     E  E  E  E  E  E  E  E   
---------------------------|--------------------------|
---------------------------|--------------------------|
------------------------3--|--L--3-----3--------------|
--0--0--0--0-0-3--3--3-----|--------3-----1--1--3--1--|


  E  E  E  S S E  E  E  E     E  E  E  E  E  E  E  E   
---------------------------|--------------------------|
---------------------------|--------------------------|
------------------------3--|--L--3-----3--------------|
--0--0--0--0-0-3--3--3-----|--------3-----1--1--3--1--|


  E  E  E  S S E  E  E  E     E  E  E  E  E  E  E   E   
---------------------------|---------------------------|
---------------------------|---------------------------|
------------------------3--|--L--3-----3--5-----5S--6--|
--0--0--0--0-0-3--3--3-----|--------3--------7---------|


  E  E  E  E  E  E  E  E     E  E  E  E  E  E  E   E   
--------9-----7--------5--|--5--------7--L------------|
-----9-----9-----7--------|-----5-----------7---------|
--7-----------------7-----|--------7-----------5S--6--|
--------------------------|---------------------------|


  E  E  E  E  E  E  E  E     E  E  E  E  E  E  Q       E  E  E  E  E  E  E  E   
--------9-----7--------5--|--L--------7--L----------|--------9-----7--------5--|
-----9-----9-----7--------|-----5-----------4-------|-----9-----9-----7--------|
--7-----------------7-----|--------7-----------5----|--7-----------------7-----|
--------------------------|-------------------------|--------------------------|


  E  E  E  E  E  E  E   E     E  E  E  E   E   E   E   E   
--L--------7--L------------|--------9-----12----------14--|
-----5-----------7---------|-----9-----9------12----------|
--------7-----------5S--6--|--7-------------------10------|
---------------------------|------------------------------|


   E   E   E   E   E   E   Q        E  E  E  E  E  E  E  E   
----------14----------14---------|--------9-----7--------5--|
--14----------14----------14\----|-----9-----9-----7--------|
------12----------12-------------|--7-----------------7-----|
---------------------------------|--------------------------|


  E  E  E  E  E  E  E   E     E  E  E  E  E  E  E  E   
--L--------7--L------------|--------9-----7--------5--|
-----5-----------7---------|-----9-----9-----7--------|
--------7-----------5S--6--|--7-----------------7-----|
---------------------------|--------------------------|


  E  E  E  E  E  E  Q       E  E  E  E  E  E  E  E   
--L--------7--L----------|--------9-----7--------5--|
-----5-----------4-------|-----9-----9-----7--------|
--------7-----------5----|--7-----------------7-----|
-------------------------|--------------------------|


  E  E  E  E  E  E  E   E     E  E  E  E  E  E  E  E   
--L--------7--L------------|--------9-----7--------5--|
-----7-----------7---------|-----9-----9-----7--------|
--------7-----------5S--6--|--7-----------------7-----|
---------------------------|--------------------------|


  E  E  E  E  E  E  E  E     E  E  E  E  E  E  E  E   
--L-----------7--7--7--7--|--------------------------|
-----5-----7--7--7--7--7--|--------------------------|
--------7-----5--5--5--5--|-----------------------3--|
--------------------------|--0--0--0--3--L--3--3-----|


  E  E  E  E  E  E  E  E     E  E  E  E  E  E  E  E   
--------------------------|--------------------------|
--------------------------|--------------------------|
--L--3-----3--------------|-----------------------3--|
--------3-----1--1--3--1--|--0--0--0--3--L--3--3-----|


  E  E  E  E  E  E  E  E     E  E  E  E  E  E  E  E   
--------------------------|--------------------------|
--------------------------|--------------------------|
--L--3-----3--------------|-----------------------3--|
--------3-----1--1--3--1--|--0--0--0--3--L--3--3-----|


  E  E  E  E  E  E  E  E     E  E  E  E  E  E  E  E   
--------------------------|--------------------------|
--------------------------|--------------------------|
--L--3-----3--------------|-----------------------3--|
--------3-----1--1--3--1--|--0--0--0--3--L--3--3-----|


  E  E  E  E  E  E  E  E     E  E  E  E  E  E  E  E   
--------------------------|--------------------------|
--------------------------|--------------------------|
--L--3-----5--L-----------|-----------------------3--|
--------3--------5--3--5--|--0--0--0--3--L--3--3-----|


  E  E  E  E  E  E  E  E     E  E  E  E  E  E  E  E   
--------------------------|--------------------------|
--------------------------|--------------------------|
--L--3-----3--------------|-----------------------3--|
--------3-----1--1--3--1--|--0--0--0--3--L--3--3-----|


  E  E  E  E  E  E  E  E     E  E  E  E  E  E  E  E   
--------------------------|--------------------------|
--------------------------|--------------------------|
--L--3-----3--------------|-----------------------3--|
--------3-----1--1--3--1--|--0--0--0--3--L--3--3-----|


  E  E  E  E  E  E  E  E     E  E  E  E  E  E  E  E   
--------------------------|--------------------------|
--------------------------|--------------------------|
--L--3-----3--------------|--------------------------|
--------3-----1--1--3--1--|--0--0--0--3--L--3--3--3--|


  E  E  Q    E  E   Q        S S S S E  E  S S S S E  E   
--------------------------|------------------------------|
--------------------------|------------------------------|
--3--3--------------------|----------------5-5-5-5-5-----|
-------------1--1--10\----|--0-0-0-0-0-------------------|


  S S S S E  E  S S S S E  E     S S S S E  E  S S S S E  E   
------------------------------|------------------------------|
------------------------------|------------------------------|
------------------------------|----------------5-5-5-5-5-----|
--3-3-3-3-3-----5-5-5-5-5-----|--0-0-0-0-0-------------------|


  S S S S E  E  S S S S E  E     S S S S E  E  S S S S E  E   
------------------------------|------------------------------|
------------------------------|------------------------------|
------------------------------|----------------5-5-5-5-5-----|
--3-3-3-3-3-----5-5-5-5-3--5--|--0-0-0-0-0-------------------|


  S S S S E  E  S S S S E  E     S S S S E  E  S S S S E  E   
------------------------------|------------------------------|
------------------------------|------------------------------|
------------------------------|----------------5-5-5-5-5-----|
--3-3-3-3-3-----5-5-5-5-5-----|--0-0-0-0-0-------------------|


  S S S S E  E  E  E  E  E     S S S S E  E  S S S S E  E   
----------------------------|------------------------------|
----------------------------|------------------------------|
----------------------------|----------------5-5-5-5-5-----|
--3-3-3-3-3--5--L--5--3--2--|--0-0-0-0-0-------------------|


  S S S S E  E  S S S S E  E     S S S S E  E  S S S S E  E   
------------------------------|------------------------------|
------------------------------|------------------------------|
------------------------------|----------------5-5-5-5-5-----|
--3-3-3-3-3-----5-5-5-5-5-----|--0-0-0-0-0-------------------|


  S S S S E  E  S S S S E  E     S S S S E  E  S S S S E  E   
------------------------------|------------------------------|
------------------------------|------------------------------|
------------------------------|----------------5-5-5-5-5-----|
--3-3-3-3-3-----5-5-5-5-3--5--|--0-0-0-0-0-------------------|


  S S S S E  E  S S S S E  E     S S S S E  E  S S S S E  E   
------------------------------|------------------------------|
------------------------------|------------------------------|
------------------------------|----------------5-5-5-5-5-----|
--3-3-3-3-3-----5-5-5-5-5-----|--0-0-0-0-0-------------------|


  S S S S E  E  E  E  E  E     E  E  E  S S E  E  E  S S  
----------------------------|----------------------------|
----------------------------|----------------------------|
----------------------3--2--|---------------5--5--5--5-5-|
--3-3-3-3-3--5--L--5--------|--0--0--0--0-0--------------|


  E  E  E  S S E  E  E  S  S    E  E  E  S S E  E  E  S S  
-----------------------------|----------------------------|
-----------------------------|----------------------------|
-----------------------------|---------------5--5--5--5-5-|
--3--3--3--3-3-5--5--5--3h-5-|--0--0--0--0-0--------------|


  E  E  E  S S E  E  E  S  S    E  E  E  S S E  E  E  S S  
-----------------------------|----------------------------|
-----------------------------|----------------------------|
-----------------------------|---------------5--5--5--5-5-|
--3--3--3--3-3-5--5--5--3h-5-|--0--0--0--0-0--------------|


  E  E  E  S S E  E  E  S  S    E  E  E  S S E  E  E  E    
-----------------------------|----------------------------|
-----------------------------|----------------------------|
-----------------------------|---------------5--5--5--5/--|
--3--3--3--3-3-5--5--5--3h-5-|--0--0--0--0-0--------------|


   E   E   E   E   E   E   E   E     E  E  E  S S E  E  E  S S  
----------------------------------|----------------------------|
----------------------------------|----------------------------|
--10--10--10--12--12--12--10--12--|---------------5--5--5--5-5-|
----------------------------------|--0--0--0--0-0--------------|


  E  E  E  S S E  E  E  E     E  E  E  S S E  E  E  S S  
---------------------------|----------------------------|
---------------------------|----------------------------|
---------------------------|---------------5--5--5--5-5-|
--3--3--3--5-5-5--5--3--2--|--0--0--0--0-0--------------|


  E  E  E  S S E  E  E  E     E  E  E  S S E  E  E  S S  
---------------------------|----------------------------|
---------------------------|----------------------------|
---------------------3--2--|---------------5--5--5--5-5-|
--3--3--3--5-5-5--5--------|--0--0--0--0-0--------------|


  E  E  E  S S E  E  E  E     E  E  E  S S E  E  E  S S  
---------------------------|----------------------------|
---------------------------|----------------------------|
---------------------------|---------------5--5--5--5-5-|
--3--3--3--5-5-5--5--3--2--|--0--0--0--0-0--------------|


  E  E  E  E  E  E  E  E     W                   W                 
--------------------------|-------------------|-------------------|
--------------------------|-------------------|-------------------|
--------------------------|-------------------|-------------------|
--3--3--3--5--5--5--3--2--|--0----------------|--L----------------|


  W                   W                   W                   W                 
-------------------|-------------------|-------------------|-------------------|
-------------------|-------------------|-------------------|-------------------|
-------------------|-------------------|-------------------|-------------------|
--L----------------|--L----------------|--L----------------|--L----------------|


  H.           Q      
--------------------||
--------------------||
--------------------||
--L-----------------||




Duration Legend
---------------
W - whole
H - half
Q - quarter
E - 8th
S - 16th
T - 32nd
X - 64th
. - note dotted
|-n-|  - n-tuplets


Tablature Legend
----------------
L - tied note
x - dead note
g - grace note
(n) - ghost note
> - accentuded note
NH - natural harmonic
AH - artificial harmonic
TH - tapped harmonic
SH - semi harmonic
PH - pitch harmonic
h - hammer on
p - pull off
b - bend
br - bendRelease
pb - preBend
pbr - preBendRelease
brb - bendReleaseBend
\n/ - tremolo bar dip
\n - tremolo bar dive
-/n - tremolo bar Release up
/n\ - tremolo bar inverted dip
/n - tremolo bar return
-\n - tremolo bar Release down
S - shift slide
s - legato slide
/ -  slide into from below or out of upwards
\ -  slide into from above or out of downwards
~ - vibrato
W - wide vibrato
tr - trill
TP - tremolo picking
T - tapping
S - slap
P - pop
< - fade in
^ - brush up
v - brush down
comments
We did not receive enough feedback on this tab! Please rate:
print report bad tab
1 2 3 4 5
2 comments total.
0 reply
exileguitar wrote on September 4 2007, 03:04 pm

AWESOME!!!!

0 reply
Kikasa wrote on March 10 2009, 11:47 am

Thank you

I want to post or [tab]
guest
You may want to rate the tab now too:
select rating
Please do not post tabs as comments. Select "correction" instead!