Oops, an error
Loading. Please wait.

Clever Sleazoid Bass Tab

ver1
ver1

Whole song

More versions @911Tabs.com
1,934 views 1 this week
no commentswrite comment
1 2 3 4 5
please rate
Autoscroll
+/-
esc
set tempo
stop
Contributor
WARNING: You are trying to view
                                    content from Ultimate-Guitar.com
                                    in an unauthorized application,
                                    which is prohibited.

                                    Please use an official Ultimate
                                    Guitar Tabs application for iPhone,
                                    iPad or Android to access legitimate
                                    chords, guitar, bass, and drum tabs
                                    from Ultimate-Guitar.com database.

                                    Type "ultimate guitar tabs" in Apple
                                    App Store's or Android Market's
                                    search to find the application.
This is a kickass song by Dir En Grey, and so is the bassline!
P.S. I dont think its drop D, So this is  in standard tunning.

intro:

|------------------------|
|------0-----------------|
|--5h3----------1----0---|
|0---------0h1---5-----1-|
                          X2
|------------------------|
|------0-----------------|
|--5h3----------1----3-0-|
|0--------0-h1----5------|


|------------------------------------------------|
|------------------------------------------------|
|------------------------------------------------|
|-----0-----0----0--x-x-0-----0----0-----0-x-x-0-|

|----------------|-------------------------|
|----------------|-------------------------|
|--5-------5-----|-------------------------|
|----x-x---------|-0--x-x-x--0--x-x-x--3---|


|------------------------------------------------|
|------------------------------------------------|
|------------------------------------------------|
|-----0-----0----0--x-x-0-----0----0-----0-x-x-0-|

|----------------|---------------------------|
|----------------|---------------------------|
|--5-------5-----|--------------------------3|
|----x-x---------|-0--x-x-x--0--x-x-x--3--5--|

chorus:

|---------------------------------------------|
|---------------------------------------------|
|------------------------0--0--0--0--0--0-----|
|0--0--0--0--0--0--0--0-------------------5--7|

|------------------------------------------------|
|------------------------------------------------|
|------------------------------------------------|
|--8--8--8--8--8--8--3--3--3--3--3--3--2--3--2--2|

|---------------------------------------------|
|---------------------------------------------|
|------------------------0--0--0--0--0--0-----|
|0--0--0--0--0--0--0--0-------------------5--7|

|------------------------------------------------|
|------------------------------------------------|
|--------------------------------------------3--3|
|--8--8--8--8--8--8--3--3--3--3--3--3--7--7------|

|-------------------------------------------------|
|-------------------------------------------------|
|--5--5--5--5--5--5--5--5--------------7--7--7--7-|
|--------------------------7--7--7--7--7--7--7--7-|

|------------------------------------------------|
|------------------------------------------------|
|--8--8--8--8--8--8--8--8------------------------|
|--8--8--8--8--8--8--8--8--8--8--8--8--7--7--7--7|

|-----------------------------------------------|
|-----------------------------------------------|
|--5--5--5--5--5--5--5--5--0--0--0--0--0--0-----|
|-------------------------------------------5--7|

|------------------------------------------------|
|------------------------------------------------|
|-------------------------0--0--0--3--3--3--7--7-|
|--8--8--8--8--8--5--5--5------------------------|

|------------------------------|
|------------------------------|
|------------------------------|
|--0--0--0--0--x-0--0-0--x--x--|

Verse II:


|------------------------|
|------0-----------------|
|--5h3----------1----0---|
|0---------0h1----5----1-|

|------------------------------------------------|
|------------------------------------------------|
|------------------------------------------------|
|-----0-----0----0--x-x-0-----0----0-----0-x-x-0-|

|----------------|-------------------------|
|----------------|-------------------------|
|--5-------5-----|-------------------------|
|----x-x---------|-0--x-x-x--0--x-x-x--3---|


|------------------------------------------------|
|------------------------------------------------|
|------------------------------------------------|
|-----0-----0----0--x-x-0-----0----0-----0-x-x-0-|

|----------------|---------------------------|
|----------------|---------------------------|
|--5-------5-----|--------------------------3|
|----x-x---------|-0--x-x-x--0--x-x-x--3--5--|


chorus:

|---------------------------------------------|
|---------------------------------------------|
|------------------------0--0--0--0--0--0-----|
|0--0--0--0--0--0--0--0-------------------5--7|

|------------------------------------------------|
|------------------------------------------------|
|------------------------------------------------|
|--8--8--8--8--8--8--3--3--3--3--3--3--2--3--2--2|

|---------------------------------------------|
|---------------------------------------------|
|------------------------0--0--0--0--0--0-----|
|0--0--0--0--0--0--0--0-------------------5--7|

|------------------------------------------------|
|------------------------------------------------|
|--------------------------------------------3--3|
|--8--8--8--8--8--8--3--3--3--3--3--3--7--7------|

|-------------------------------------------------|
|-------------------------------------------------|
|--5--5--5--5--5--5--5--5--------------7--7--7--7-|
|--------------------------7--7--7--7--7--7--7--7-|

|------------------------------------------------|
|------------------------------------------------|
|--8--8--8--8--8--8--8--8------------------------|
|--8--8--8--8--8--8--8--8--8--8--8--8--7--7--7--7|

|-----------------------------------------------|
|-----------------------------------------------|
|--5--5--5--5--5--5--5--5--0--0--0--0--0--0-----|
|-------------------------------------------5--7|

|-----------------------------------------------------|
|-----------------------------------------------------|
|------------------------------0--0--0--0--3--3--3--3-|
|--8--8--8--8--8--5--5--5---5-------------------------|

Bridge:

|------------------------------------------------|
|------------------------------------------------|
|------------------------------------------------|
|--0--0--0--0--0--0--0--0--0--0--0--0--0--0--0--0|

|------------------------------------------------|
|------------------------------------------------|
|--------------------------------------3--3--3--3|
|--3--3--3--3--3--3--3--3--3--3--3--3------------|


|------------------------------------------------|
|------------------------------------------------|
|------------------------------------------------|
|--8--8--8--8--8--8--8--8--8--8--8--8--5--5--5--5|

|------------------------------------------------|
|------------------------------------------------|
|------------------------------------------------|
|--7--7--7--7--7--7--7--7--7--7--7--7--3--3--3--3|


|------------------------------------------------|
|------------------------------------------------|
|------------------------------------------------|
|--5--5--5--5--5--5--5--5--5--5--5--5--0--0--0--0|

|--------------------------------|------------------------------|
|--------------------------------|------------------------------|
|--------------------------------|------------------------------|
|--7--7--7-7--5--7-x-x-7--7------|--0--0---0--0---0--0---0-0----|

|------------------------------|
|------------------------------|
|------------------------------|
|--0--0---0--0---0--0---0-0----|

intro

|------------------------|
|------0-----------------|
|--5h3----------1----0---|
|0--------0-(1)---5----1-|
                          X2
|------------------------|
|------0-----------------|
|--5h3----------1----3-0-|
|0--------0-(1)---5------|

then:


|------------------------------|
|------0-----------------------|
|--5h3-----------5--5--3--5--5-|
|0--------(0)-0----------------|


Bridge:

|-------------------------------|
|-------------------------------|
|--5h3--5----------3--5--3--5--5|
|0---------0--(0)---------------|

|-----|
|-----|
|-----|
|-0---|

|------------------------------------------------|
|------------------------------------------------|
|--1--1--x--1--1--x--1--1--x--1--1--x--3--3--3--3|
|------------------------------------------------|

|------------------------------------|
|------------------------------------|
|--0--0-x-0--0-x--0-0-----0-0-----0--|
|---------------------5-5-----5-5----|

|------------------------------------------------|
|------------------------------------------------|
|--1--1--x--1--1--x--1--1--x--1--1--x--3--3--3--3|
|------------------------------------------------|

|-----------------------------------|
|-----------------------------3-2---|
|--0-0-x-0--0-x-0-0-x---0-3-5-----3-|
|---------------------5-------------|

|------------------------------------------------|
|------------------------------------------------|
|--1--1--x--1--1--x--1--1--x--1--1--x--3--3--3--3|
|------------------------------------------------|

|--------------------0-----0--|
|------------------3----3----3|
|--0-0-x-0-0-x-0-0------------|

|----------------------------|
|----------------------------|
|----------------------------|
|--0---2------3--x-x-3-----10|

|---------------------------------------|
|---------------------------------------|
|---------------------------------------|
|--8----5----7----3----5-----0----7----3|

|---------------------------------------------------|
|---------------------------------------------------|
|---------------------------------------------------|
|--8--8--8--8--8--8--8--8--5--7--7--7--7--7--7--7--7|


Bridge again:

|------------------------------------------------|
|------------------------------------------------|
|------------------------------------------------|
|--0--0--0--0--0--0--0--0--0--0--0--0--0--0--0--0|

|------------------------------------------------|
|------------------------------------------------|
|--------------------------------------3--3--3--3|
|--3--3--3--3--3--3--3--3--3--3--3--3------------|


|------------------------------------------------|
|------------------------------------------------|
|------------------------------------------------|
|--8--8--8--8--8--8--8--8--8--8--8--8--5--5--5--5|

|------------------------------------------------|
|------------------------------------------------|
|------------------------------------------------|
|--7--7--7--7--7--7--7--7--7--7--7--7--3--3--3--3|


|------------------------------------------------|
|------------------------------------------------|
|------------------------------------------------|
|--5--5--5--5--5--5--5--5--5--5--5--5--0--0--0--0|

|--------------------------------|------------------------------|
|--------------------------------|------------------------------|
|--------------------------------|--5--5---------5--5-----------|
|--7--7--7-7--5--7-x-x-7--7------|---------x--x-----------------|

|------------------------------|
|------------------------------|
|------------------------------|
|--0---x-x-x--0--x-x-x--3-5-3--|

There you have it, there are probably some errors in the intro and around the place, but 
can be used as a guide I guess.
comments
We did not receive enough feedback on this tab! Please rate:
print report bad tab
1 2 3 4 5
I want to post or [tab]
guest
You may want to rate the tab now too:
select rating
Please do not post tabs as comments. Select "correction" instead!