Oops, an error
Loading. Please wait.

Final Tab

ver2
ver2

Whole song

Interactive

More versions @911Tabs.com
1,499 views 3 this week
no commentswrite comment
1 2 3 4 5
please rate
Autoscroll
+/-
esc
set tempo
stop
Contributor
Difficulty
Tuning
novice
C# G# C# F# A# D#
Hey! There's an official Ultimate Guitar app which is ideal
for learning songs when you're away from computer. Get the app
WARNING: You are trying to view
                                    content from Ultimate-Guitar.com
                                    in an unauthorized application,
                                    which is prohibited.

                                    Please use an official Ultimate
                                    Guitar Tabs application for iPhone,
                                    iPad or Android to access legitimate
                                    chords, guitar, bass, and drum tabs
                                    from Ultimate-Guitar.com database.

                                    Type "ultimate guitar tabs" in Apple
                                    App Store's or Android Market's
                                    search to find the application.
                           The Final                                     


                                                                 Dir en grey
Kaoru & Die      
               

Kaoru
      W                   W                   S E  S S S S S S E  S E  E   
D#||-------------------|-------------------|------------------------------|
A#||-------------------|-------------------|------------------------------|
F#||-------------------|-------------------|------------------------------|
C#||-------------------|-------------------|--4----------4----------4-----|
G#||-------------------|-------------------|------------------------------|
C#||-------------------|-------------------|----4--4-L-4---4-L-4--4----4--|


  S E  S S S S S S E  S E  E     S E  S S S S S S E  S E  E   
------------------------------|------------------------------|
------------------------------|------------------------------|
------------------------------|------------------------------|
--4----------4----------4-----|--4----------4----------4-----|
------------------------------|------------------------------|
----4--4-L-4---4-L-4--4----4--|----4--4-L-4---4-L-4--4----4--|


  S E  S S S S S S E  S E  E     S E  S S S S S S E  S E  E   
------------------------------|------------------------------|
------------------------------|------------------------------|
------------------------------|------------------------------|
--5----------5----------5-----|--5----------5----------5-----|
------------------------------|------------------------------|
----4--4-L-4---4-L-4--4----4--|----4--4-L-4---4-L-4--4----4--|


  S E  S S S S S S E  S E  E     S E  S S S S S S E  S E  E   
------------------------------|------------------------------|
------------------------------|------------------------------|
------------------------------|------------------------------|
--5----------5----------5-----|--5----------5----------5-----|
------------------------------|------------------------------|
----4--4-L-4---4-L-4--4----4--|----4--4-L-4---4-L-4--4----4--|


  S E  S S E  S E  E  Q       H        E  E  E  E     H.           E  S S  
---------------------------|-----------------------|----------------------|
---------------------------|-----------------------|----------------------|
---------------------------|-----------------------|----------------------|
--4--------4----4-----4----|--7--------L--7--7--7--|--7------------7--7-7-|
---------------------------|--4--------L--4--4--4--|--0------------0--0-0-|
----4--4-4----4----4-------|--4--------L--4--4--4--|--0------------0--0-0-|


  Q.     E  E  E  E  S S    H.           E  S S    H        E  E  E  E   
-------------------------|----------------------|-----------------------|
-------------------------|----------------------|-----------------------|
-------------------------|----------------------|-----------------------|
--7------9--L--9--9--9-9-|--2------------2--2-2-|--7--------L--7--7--7--|
--7------7--L--7--7--7-7-|--2------------2--2-2-|--4--------L--4--4--4--|
--7------7--L--7--7--7-7-|--2------------2--2-2-|--4--------L--4--4--4--|


  H.           E  S S    Q.     E  E  E  E  S S    H.           E  S S  
----------------------|-------------------------|----------------------|
----------------------|-------------------------|----------------------|
----------------------|-------------------------|----------------------|
--7------------7--7-7-|--7------9--L--9--9--9-9-|--2------------2--2-2-|
--0------------0--0-0-|--7------7--L--7--7--7-7-|--2------------2--2-2-|
--0------------0--0-0-|--7------7--L--7--7--7-7-|--2------------2--2-2-|


  S  E  S E  S  S S S E  S S S S    S  E  S E  S  S S S E  S S S S  
---------------------------------|---------------------------------|
---------------------------------|---------------------------------|
---------------------------------|---------------------------------|
--0--4--4-4--0--4-L-4-4--4-4-4-4-|--0--4--4-4--0--4-L-4-4--4-4-4-4-|
--0--4--4-4--0--4-L-4-4--4-4-4-4-|--0--4--4-4--0--4-L-4-4--4-4-4-4-|
--0h-4--4-4--0h-4-L-4-4--4-4-4-4-|--0h-4--4-4--0h-4-L-4-4--4-4-4-4-|


  S  E  S E  S  S S S E  S S S S    S  E  S E  S  S S S S S S S S S  
---------------------------------|----------------------------------|
---------------------------------|----------------------------------|
---------------------------------|----------------------------------|
--0--4--4-4--0--4-L-4-4--4-4-4-4-|--0--4--4-4--0--2-L-2-2-2-2-2-2-2-|
--0--4--4-4--0--4-L-4-4--4-4-4-4-|--0--4--4-4--0--2-L-2-2-2-2-2-2-2-|
--0h-4--4-4--0h-4-L-4-4--4-4-4-4-|--0h-4--4-4--0h-2-L-2-2-2-2-2-2-2-|


  W                   W                   W                   W                 
-------------------|-------------------|-------------------|-------------------|
-------------------|-------------------|-------------------|-------------------|
-------------------|-------------------|-------------------|-------------------|
-------------------|-------------------|-------------------|-------------------|
-------------------|-------------------|-------------------|-------------------|
-------------------|-------------------|-------------------|-------------------|


  W                   W                   W                   W                 
-------------------|-------------------|-------------------|-------------------|
-------------------|-------------------|-------------------|-------------------|
-------------------|-------------------|-------------------|-------------------|
-------------------|-------------------|-------------------|-------------------|
-------------------|-------------------|-------------------|-------------------|
-------------------|-------------------|-------------------|-------------------|


  W                   W                   W                   W                 
-------------------|-------------------|-------------------|-------------------|
-------------------|-------------------|-------------------|-------------------|
-------------------|-------------------|-------------------|-------------------|
-------------------|-------------------|-------------------|-------------------|
-------------------|-------------------|-------------------|-------------------|
-------------------|-------------------|-------------------|-------------------|


  W                   W                   W                   W                 
-------------------|-------------------|-------------------|-------------------|
-------------------|-------------------|-------------------|-------------------|
-------------------|-------------------|-------------------|-------------------|
-------------------|-------------------|-------------------|-------------------|
-------------------|-------------------|-------------------|-------------------|
-------------------|-------------------|-------------------|-------------------|


  H        E  E  E  E     H.           E  S S    Q.     E  E  E  E  S S  
-----------------------|----------------------|-------------------------|
-----------------------|----------------------|-------------------------|
-----------------------|----------------------|-------------------------|
--7--------L--7--7--7--|--7------------7--7-7-|--7------9--L--9--9--9-9-|
--4--------L--4--4--4--|--0------------0--0-0-|--7------7--L--7--7--7-7-|
--4--------L--4--4--4--|--0------------0--0-0-|--7------7--L--7--7--7-7-|


  H.           E  S S    H        E  E  E  E     H.           E  S S  
----------------------|-----------------------|----------------------|
----------------------|-----------------------|----------------------|
----------------------|-----------------------|----------------------|
--2------------2--2-2-|--7--------L--7--7--7--|--7------------7--7-7-|
--2------------2--2-2-|--4--------L--4--4--4--|--0------------0--0-0-|
--2------------2--2-2-|--4--------L--4--4--4--|--0------------0--0-0-|


  Q.     E  E  E  E  S S    H.           E  S S    H        E  E  E  E   
-------------------------|----------------------|-----------------------|
-------------------------|----------------------|-----------------------|
-------------------------|----------------------|-----------------------|
--7------9--L--9--9--9-9-|--2------------2--2-2-|--7--------L--7--7--7--|
--7------7--L--7--7--7-7-|--2------------2--2-2-|--4--------L--4--4--4--|
--7------7--L--7--7--7-7-|--2------------2--2-2-|--4--------L--4--4--4--|


  H.           E  S S    Q.     E  E  E  E  S S    H.           E  S S  
----------------------|-------------------------|----------------------|
----------------------|-------------------------|----------------------|
----------------------|-------------------------|----------------------|
--7------------7--7-7-|--7------9--L--9--9--9-9-|--2------------2--2-2-|
--0------------0--0-0-|--7------7--L--7--7--7-7-|--2------------2--2-2-|
--0------------0--0-0-|--7------7--L--7--7--7-7-|--2------------2--2-2-|


  H        E  E  E  E     H.           E  S S    Q.     E  E  E  E  S S  
-----------------------|----------------------|-------------------------|
-----------------------|----------------------|-------------------------|
-----------------------|----------------------|-------------------------|
--7--------L--7--7--7--|--7------------7--7-7-|--7------9--L--9--9--9-9-|
--4--------L--4--4--4--|--0------------0--0-0-|--7------7--L--7--7--7-7-|
--4--------L--4--4--4--|--0------------0--0-0-|--7------7--L--7--7--7-7-|


  H.           E  S S    S  E  S S S E  E  E  Q     
----------------------|----------------------------|
----------------------|----------------------------|
----------------------|----------------------------|
--2------------2--2-2-|----------------------------|
--2------------2--2-2-|--0--4--4-4-L-5--L--4-------|
--2------------2--2-2-|--0h-4--4-4-L-5--L--4-------|


  S  E  S E  S  S S S E  S S S S    S  E  S E  S  S S S E  S S S S  
---------------------------------|---------------------------------|
---------------------------------|---------------------------------|
---------------------------------|---------------------------------|
--0--4--4-4--0--4-L-4-4--4-4-4-4-|--0--4--4-4--0--4-L-4-4--4-4-4-4-|
--0--4--4-4--0--4-L-4-4--4-4-4-4-|--0--4--4-4--0--4-L-4-4--4-4-4-4-|
--0h-4--4-4--0h-4-L-4-4--4-4-4-4-|--0h-4--4-4--0h-4-L-4-4--4-4-4-4-|


  S  E  S E  S  S S S E  S S S S    S  E  S E  S  S S S E  S S S S  
---------------------------------|---------------------------------|
---------------------------------|---------------------------------|
---------------------------------|---------------------------------|
--0--4--4-4--0--4-L-4-4--4-4-4-4-|--0--4--4-4--0--2-L-2-2--2-2-2-2-|
--0--4--4-4--0--4-L-4-4--4-4-4-4-|--0--4--4-4--0--2-L-2-2--2-2-2-2-|
--0h-4--4-4--0h-4-L-4-4--4-4-4-4-|--0h-4--4-4--0h-2-L-2-2--2-2-2-2-|


  S  E  S E  S  S S S E  S S S S    S  E  S E  S  S S S E  S S S S  
---------------------------------|---------------------------------|
---------------------------------|---------------------------------|
---------------------------------|---------------------------------|
--0--4--4-4--0--4-L-4-4--4-4-4-4-|--0--4--4-4--0--4-L-4-4--4-4-4-4-|
--0--4--4-4--0--4-L-4-4--4-4-4-4-|--0--4--4-4--0--4-L-4-4--4-4-4-4-|
--0h-4--4-4--0h-4-L-4-4--4-4-4-4-|--0h-4--4-4--0h-4-L-4-4--4-4-4-4-|


  S  E  S E  S  S S S E  S S S S    S  E  S E  S  S S S E  S S S S  
---------------------------------|---------------------------------|
---------------------------------|---------------------------------|
---------------------------------|---------------------------------|
--0--4--4-4--0--4-L-4-4--4-4-4-4-|--0--4--4-4--0--2-L-2-2--2-2-2-2-|
--0--4--4-4--0--4-L-4-4--4-4-4-4-|--0--4--4-4--0--2-L-2-2--2-2-2-2-|
--0h-4--4-4--0h-4-L-4-4--4-4-4-4-|--0h-4--4-4--0h-2-L-2-2--2-2-2-2-|


  S E  S E  S S S S E  E  S S    S E  S E  S S S S E  E  S S  
------------------------------|------------------------------|
------------------------------|------------------------------|
--6-6--6-6--6-6-L-6-6--6--6-6-|--6-6--6-6--6-6-L-6-6--6--6-6-|
--4-4--4-4--4-4-L-4-4--4--4-4-|--4-4--4-4--4-4-L-4-4--4--4-4-|
------------------------------|------------------------------|
------------------------------|------------------------------|


  S E  S E  S S S S E  E  S S    S E  S E  S S S S E  E  S S  
------------------------------|------------------------------|
------------------------------|------------------------------|
--6-6--6-6--6-6-L-6-6--6--6-6-|--6-6--6-6--6-6-L-6-6--6--6-6-|
--4-4--4-4--4-4-L-4-4--4--4-4-|--4-4--4-4--4-4-L-4-4--4--4-4-|
------------------------------|------------------------------|
------------------------------|------------------------------|


  S E  S E  S S S S E  E  S S    S E  S E  S S S S E  E  S S  
------------------------------|------------------------------|
------------------------------|------------------------------|
--6-6--6-6--6-6-L-6-6--6--6-6-|--6-6--6-6--6-6-L-6-6--6--6-6-|
--4-4--4-4--4-4-L-4-4--4--4-4-|--4-4--4-4--4-4-L-4-4--4--4-4-|
------------------------------|------------------------------|
------------------------------|------------------------------|


  S E  S E  S S S S E  E  S S    S E  S E  S S S S E  E  S S  
------------------------------|------------------------------|
------------------------------|------------------------------|
--6-6--6-6--6-6-L-6-6--6--6-6-|--6-6--6-6--6-6-L-6-6--6--6-6-|
--4-4--4-4--4-4-L-4-4--4--4-4-|--4-4--4-4--4-4-L-4-4--4--4-4-|
------------------------------|------------------------------|
------------------------------|------------------------------|


  PM PM PM   PM PM PM   PM            PM PM PM   PM PM PM   PM          
  S  E  S  S S  S  S  S S  E  Q       S  E  S  S S  S  S  S S  E  Q     
-----------------------------------|-----------------------------------|
-----------------------------------|-----------------------------------|
-----------------------------------|-----------------------------------|
-----------------------------------|-----------------------------------|
-----------------------------------|-----------------------------------|
--2h-4--4--L-4--2h-4--L-4----------|--2h-4--4--L-4--2h-4--L-4----------|


  PM PM PM   PM PM PM   PM            PM PM PM   PM PM PM   PM          
  S  E  S  S S  S  S  S S  E  Q       S  E  S  S S  S  S  S S  E  Q     
-----------------------------------|-----------------------------------|
-----------------------------------|-----------------------------------|
-----------------------------------|-----------------------------------|
-----------------------------------|-----------------------------------|
-----------------------------------|-----------------------------------|
--2h-4--4--L-4--2h-4--L-4----------|--2h-4--4--L-4--2h-4--L-4----------|


  S  E  S S S S  S S E  S S S S S    S  E  S S S S  S S E  S S S S S  
----------------------------------|----------------------------------|
----------------------------------|----------------------------------|
----------------------------------|----------------------------------|
--2--4--4-L-4-2--4-L-4--4-4-4-4-4-|--2--4--4-L-4-2--4-L-4--4-4-4-4-4-|
--2--4--4-L-4-2--4-L-4--4-4-4-4-4-|--2--4--4-L-4-2--4-L-4--4-4-4-4-4-|
--2h-4--4-L-4-2h-4-L-4--4-4-4-4-4-|--2h-4--4-L-4-2h-4-L-4--4-4-4-4-4-|


  S  E  S S S S  S S E  S S S S S    S S S S S S S S E  E  Q     
----------------------------------|-----------------------------|
----------------------------------|-----------------------------|
----------------------------------|-----------------------------|
--4--5--5-L-5-4--5-L-5--5-5-5-5-5-|--4-4-4-4-4-4-4-4-4----------|
--4--5--5-L-5-4--5-L-5--5-5-5-5-5-|--4-4-4-4-4-4-4-4-4----------|
--4h-5--5-L-5-4h-5-L-5--5-5-5-5-5-|--4-4-4-4-4-4-4-4-4----------|


  H        E  E  E  E     H.           E  S S    Q.     E  E  E  E  S S  
-----------------------|----------------------|-------------------------|
-----------------------|----------------------|-------------------------|
-----------------------|----------------------|-------------------------|
--7--------L--7--7--7--|--7------------7--7-7-|--7------9--L--9--9--9-9-|
--4--------L--4--4--4--|--0------------0--0-0-|--7------7--L--7--7--7-7-|
--4--------L--4--4--4--|--0------------0--0-0-|--7------7--L--7--7--7-7-|


  H.           E  S S    H        E  E  E  E     H.           E  S S  
----------------------|-----------------------|----------------------|
----------------------|-----------------------|----------------------|
----------------------|-----------------------|----------------------|
--2------------2--2-2-|--7--------L--7--7--7--|--7------------7--7-7-|
--2------------2--2-2-|--4--------L--4--4--4--|--0------------0--0-0-|
--2------------2--2-2-|--4--------L--4--4--4--|--0------------0--0-0-|


  Q.     E  E  E  E  S S    H.           E  S S    H        E  E  E  E   
-------------------------|----------------------|-----------------------|
-------------------------|----------------------|-----------------------|
-------------------------|----------------------|-----------------------|
--7------9--L--9--9--9-9-|--2------------2--2-2-|--7--------L--7--7--7--|
--7------7--L--7--7--7-7-|--2------------2--2-2-|--4--------L--4--4--4--|
--7------7--L--7--7--7-7-|--2------------2--2-2-|--4--------L--4--4--4--|


  H.           E  S S    Q.     E  E  E  E  S S    H.           E  S S  
----------------------|-------------------------|----------------------|
----------------------|-------------------------|----------------------|
----------------------|-------------------------|----------------------|
--7------------7--7-7-|--7------9--L--9--9--9-9-|--2------------2--2-2-|
--0------------0--0-0-|--7------7--L--7--7--7-7-|--2------------2--2-2-|
--0------------0--0-0-|--7------7--L--7--7--7-7-|--2------------2--2-2-|


  H        E  E  E  E     H.           E  S S    Q.     E  E  E  E  S S  
-----------------------|----------------------|-------------------------|
-----------------------|----------------------|-------------------------|
-----------------------|----------------------|-------------------------|
--7--------L--7--7--7--|--7------------7--7-7-|--7------9--L--9--9--9-9-|
--4--------L--4--4--4--|--0------------0--0-0-|--7------7--L--7--7--7-7-|
--4--------L--4--4--4--|--0------------0--0-0-|--7------7--L--7--7--7-7-|


  Q    E  S S S S S S E  S S    H        E  E  E  E     H.           E  S S  
-----------------------------|-----------------------|----------------------|
-----------------------------|-----------------------|----------------------|
-----------------------------|-----------------------|----------------------|
--2----2--2-2-2-2-2-2-2--2-2-|--7--------L--7--7--7--|--7------------7--7-7-|
--2----2--2-2-2-2-2-2-2--2-2-|--4--------L--4--4--4--|--0------------0--0-0-|
--2----2--2-2-2-2-2-2-2--2-2-|--4--------L--4--4--4--|--0------------0--0-0-|


  Q.     E  E  E  E  S S    H.           E  S S    H        E  E  E  E   
-------------------------|----------------------|-----------------------|
-------------------------|----------------------|-----------------------|
-------------------------|----------------------|-----------------------|
--7------9--L--9--9--9-9-|--2------------2--2-2-|--7--------L--7--7--7--|
--7------7--L--7--7--7-7-|--2------------2--2-2-|--4--------L--4--4--4--|
--7------7--L--7--7--7-7-|--2------------2--2-2-|--4--------L--4--4--4--|


  H.           E  S S    Q.     E  E  E  E  S S    H.           E  S S  
----------------------|-------------------------|----------------------|
----------------------|-------------------------|----------------------|
----------------------|-------------------------|----------------------|
--7------------7--7-7-|--7------9--L--9--9--9-9-|--2------------2--2-2-|
--0------------0--0-0-|--7------7--L--7--7--7-7-|--2------------2--2-2-|
--0------------0--0-0-|--7------7--L--7--7--7-7-|--2------------2--2-2-|


  H.           E  S S    H.           E  S S    H.           E  S S  
----------------------|----------------------|----------------------|
----------------------|----------------------|----------------------|
----------------------|----------------------|----------------------|
--7------------7--7-7-|--2------------2--2-2-|--4------------4--4-4-|
--0------------0--0-0-|--2------------2--2-2-|--4------------4--4-4-|
--0------------0--0-0-|--2------------2--2-2-|--4------------4--4-4-|


  H        E  E  E  E     H.           E  S S    H.           E  S S  
-----------------------|----------------------|----------------------|
-----------------------|----------------------|----------------------|
-----------------------|----------------------|----------------------|
--4--------4--4--4--4--|--7------------7--7-7-|--2------------2--2-2-|
--4--------4--4--4--4--|--0------------0--0-0-|--2------------2--2-2-|
--4--------4--4--4--4--|--0------------0--0-0-|--2------------2--2-2-|


  Q.     E  E  E  E  E     W                 
------------------------|-------------------|
------------------------|-------------------|
------------------------|-------------------|
--7------7--7--7--7--7--|--9----------------|
--5------5--5--5--5--5--|--7----------------|
------------------------|-------------------|


  PM PM PM   PM PM PM   PM            PM PM PM   PM PM PM   PM          
  S  E  S  S S  S  S  S S  E  Q       S  E  S  S S  S  S  S S  E  Q     
-----------------------------------|-----------------------------------|
-----------------------------------|-----------------------------------|
-----------------------------------|-----------------------------------|
-----------------------------------|-----------------------------------|
-----------------------------------|-----------------------------------|
--2h-4--4--L-4--2h-4--L-4----------|--2h-4--4--L-4--2h-4--L-4----------|


  PM PM PM   PM PM PM   PM            PM PM PM   PM PM PM   PM          
  S  E  S  S S  S  S  S S  E  Q       S  E  S  S S  S  S  S S  E  Q     
-----------------------------------|-----------------------------------|
-----------------------------------|-----------------------------------|
-----------------------------------|-----------------------------------|
-----------------------------------|-----------------------------------|
-----------------------------------|-----------------------------------|
--2h-4--4--L-4--2h-4--L-4----------|--2h-4--4--L-4--2h-4--L-4----------|


  S  E  S S S S  S S E  S S S S S    S  E  S S S S  S S E  S S S S S  
----------------------------------|----------------------------------|
----------------------------------|----------------------------------|
----------------------------------|----------------------------------|
--2--4--4-L-4-2--4-L-4--4-4-4-4-4-|--2--4--4-L-4-2--4-L-4--4-4-4-4-4-|
--2--4--4-L-4-2--4-L-4--4-4-4-4-4-|--2--4--4-L-4-2--4-L-4--4-4-4-4-4-|
--2h-4--4-L-4-2h-4-L-4--4-4-4-4-4-|--2h-4--4-L-4-2h-4-L-4--4-4-4-4-4-|


                                             PM PM PM PM         
  S  E  S S S S  S S E  S S S S S    S  E  S S  S  E  Q    Q     
----------------------------------|-----------------------------|
----------------------------------|-----------------------------|
----------------------------------|-----------------------------|
--4--5--5-L-5-4--5-L-5--5-5-5-5-5-|--2--4--4--------------------|
--4--5--5-L-5-4--5-L-5--5-5-5-5-5-|--2--4--4--------------------|
--4h-5--5-L-5-4h-5-L-5--5-5-5-5-5-|--2h-4--4-4--4--4--4---------|


  W                   W                   W                   W                 
-------------------|-------------------|-------------------|-------------------|
-------------------|-------------------|-------------------|-------------------|
-------------------|-------------------|-------------------|-------------------|
-------------------|-------------------|-------------------|-------------------|
-------------------|-------------------|-------------------|-------------------|
-------------------|-------------------|-------------------|-------------------|


  W                  
-------------------||
-------------------||
-------------------||
-------------------||
-------------------||
-------------------||


DIE

      W                   W                   W                 
D#||-------------------|-------------------|-------------------|
A#||-------------------|-------------------|-------------------|
F#||-------------------|-------------------|-------------------|
C#||-------------------|-------------------|-------------------|
G#||-------------------|-------------------|-------------------|
C#||-------------------|-------------------|-------------------|


  W                   W                   W                   W                 
-------------------|-------------------|-------------------|-------------------|
-------------------|-------------------|-------------------|-------------------|
-------------------|-------------------|-------------------|-------------------|
-------------------|-------------------|-------------------|-------------------|
-------------------|-------------------|-------------------|-------------------|
-------------------|-------------------|-------------------|-------------------|


  W                   W                   W                 
-------------------|-------------------|-------------------|
-------------------|-------------------|-------------------|
-------------------|-------------------|-------------------|
-------------------|-------------------|-------------------|
-------------------|-------------------|-------------------|
-------------------|-------------------|-------------------|


  Q    E  S S S S E  E  S S    Q    E  S S S S E  E  S S  
----------------------------|----------------------------|
----------------------------|----------------------------|
----------------------------|----------------------------|
--4----4--4-4-4-4-4--4--4-4-|--0----0--0-0-0-0-0--0--0-0-|
--4----4--4-4-4-4-4--4--4-4-|--0----0--0-0-0-0-0--0--0-0-|
--4----4--4-4-4-4-4--4--4-4-|--0----0--0-0-0-0-0--0--0-0-|


  Q    E  S S S S E  E  S S    Q    E  S S S S E  E  S S  
----------------------------|----------------------------|
----------------------------|----------------------------|
--2----2--2-2-2-2-2--2--2-2-|----------------------------|
--2----2--2-2-2-2-2--2--2-2-|--2----2--2-2-2-2-2--2--2-2-|
--0----0--0-0-0-0-0--0--0-0-|--2----2--2-2-2-2-2--2--2-2-|
----------------------------|--2----2--2-2-2-2-2--2--2-2-|


  Q    E  S S S S E  E  S S    Q    E  S S S S E  E  S S  
----------------------------|----------------------------|
----------------------------|----------------------------|
----------------------------|----------------------------|
--4----4--4-4-4-4-4--4--4-4-|--0----0--0-0-0-0-0--0--0-0-|
--4----4--4-4-4-4-4--4--4-4-|--0----0--0-0-0-0-0--0--0-0-|
--4----4--4-4-4-4-4--4--4-4-|--0----0--0-0-0-0-0--0--0-0-|


  Q    E  S S S S E  E  S S    Q    E  S S S S E  E  S S  
----------------------------|----------------------------|
----------------------------|----------------------------|
--2----2--2-2-2-2-2--2--2-2-|----------------------------|
--2----2--2-2-2-2-2--2--2-2-|--2----2--2-2-2-2-2--2--2-2-|
--0----0--0-0-0-0-0--0--0-0-|--2----2--2-2-2-2-2--2--2-2-|
----------------------------|--2----2--2-2-2-2-2--2--2-2-|


  S  E  S E  S  S S S E  S S S S    S  E  S E  S  S S S E  S S S S  
---------------------------------|---------------------------------|
---------------------------------|---------------------------------|
---------------------------------|---------------------------------|
--0--4--4-4--0--4-L-4-4--4-4-4-4-|--0--4--4-4--0--4-L-4-4--4-4-4-4-|
--0--4--4-4--0--4-L-4-4--4-4-4-4-|--0--4--4-4--0--4-L-4-4--4-4-4-4-|
--0h-4--4-4--0h-4-L-4-4--4-4-4-4-|--0h-4--4-4--0h-4-L-4-4--4-4-4-4-|


  S  E  S E  S  S S S E  S S S S    S  E  S E  S  S S S S S S S S S  
---------------------------------|----------------------------------|
---------------------------------|----------------------------------|
---------------------------------|----------------------------------|
--0--4--4-4--0--4-L-4-4--4-4-4-4-|--0--4--4-4--0--2-L-2-2-2-2-2-2-2-|
--0--4--4-4--0--4-L-4-4--4-4-4-4-|--0--4--4-4--0--2-L-2-2-2-2-2-2-2-|
--0h-4--4-4--0h-4-L-4-4--4-4-4-4-|--0h-4--4-4--0h-2-L-2-2-2-2-2-2-2-|


  W                   W                   W                 
--4----------------|--L----------------|--5----------------|
--5----------------|--L----------------|--5----------------|
--6----------------|--L----------------|--6----------------|
-------------------|-------------------|-------------------|
-------------------|-------------------|-------------------|
-------------------|-------------------|-------------------|


  H.           E  E     W                   W                 
--L------------7-----|--9----------------|--L----------------|
--L------------7-----|--7----------------|--L----------------|
--L------------7-----|--7----------------|--L----------------|
---------------------|-------------------|-------------------|
---------------------|-------------------|-------------------|
---------------------|-------------------|-------------------|


   W                    W                   W                 
--10----------------|---L----------------|--4----------------|
---7----------------|---L----------------|--5----------------|
---7----------------|---L----------------|--6----------------|
--------------------|--------------------|-------------------|
--------------------|--------------------|-------------------|
--------------------|--------------------|-------------------|


  W                   W                   H.           E  E   
--L----------------|--5----------------|--L------------7-----|
--L----------------|--5----------------|--L------------7-----|
--L----------------|--6----------------|--L------------7-----|
-------------------|-------------------|---------------------|
-------------------|-------------------|---------------------|
-------------------|-------------------|---------------------|


  W                   W                    W                 
--9----------------|--L----------------|--10----------------|
--7----------------|--L----------------|---7----------------|
--7----------------|--L----------------|---7----------------|
-------------------|-------------------|--------------------|
-------------------|-------------------|--------------------|
-------------------|-------------------|--------------------|


   W                   E  E  E  S S S S E  E  E     E  E  E  S S S S E  E  E   
---L----------------|----------------------------|----------------------------|
---L----------------|----------------------------|----------------------------|
---L----------------|----------------------------|----------------------------|
--------------------|--4--4--4--4-4-4-4-4--4--4--|--0--0--0--0-0-0-0-0--0--0--|
--------------------|--4--4--4--4-4-4-4-4--4--4--|--0--0--0--0-0-0-0-0--0--0--|
--------------------|--4--4--4--4-4-4-4-4--4--4--|--0--0--0--0-0-0-0-0--0--0--|


  E  E  E  S S S S E  E  E     E  E  E  S S S S E  E  E   
----------------------------|----------------------------|
----------------------------|----------------------------|
--2--2--2--2-2-2-2-2--2--2--|----------------------------|
--2--2--2--2-2-2-2-2--2--2--|--2--2--2--2-2-2-2-2--2--2--|
--0--0--0--0-0-0-0-0--0--0--|--2--2--2--2-2-2-2-2--2--2--|
----------------------------|--2--2--2--2-2-2-2-2--2--2--|


  E  E  E  S S S S E  E  E     E  E  E  S S S S E  E  E   
----------------------------|----------------------------|
----------------------------|----------------------------|
----------------------------|----------------------------|
--4--4--4--4-4-4-4-4--4--4--|--0--0--0--0-0-0-0-0--0--0--|
--4--4--4--4-4-4-4-4--4--4--|--0--0--0--0-0-0-0-0--0--0--|
--4--4--4--4-4-4-4-4--4--4--|--0--0--0--0-0-0-0-0--0--0--|


  E  E  E  S S S S E  E  E     E  E  E  S S S S E  E  E   
----------------------------|----------------------------|
----------------------------|----------------------------|
--2--2--2--2-2-2-2-2--2--2--|----------------------------|
--2--2--2--2-2-2-2-2--2--2--|--2--2--2--2-2-2-2-2--2--2--|
--0--0--0--0-0-0-0-0--0--0--|--2--2--2--2-2-2-2-2--2--2--|
----------------------------|--2--2--2--2-2-2-2-2--2--2--|


  E  E  E  S S S S E  E  E     E  E  E  S S S S E  E  E   
----------------------------|----------------------------|
----------------------------|----------------------------|
----------------------------|----------------------------|
--4--4--4--4-4-4-4-4--4--4--|--0--0--0--0-0-0-0-0--0--0--|
--4--4--4--4-4-4-4-4--4--4--|--0--0--0--0-0-0-0-0--0--0--|
--4--4--4--4-4-4-4-4--4--4--|--0--0--0--0-0-0-0-0--0--0--|


  E  E  E  S S S S E  E  E     E  E  E  S S S S E  E  E   
----------------------------|----------------------------|
----------------------------|----------------------------|
--2--2--2--2-2-2-2-2--2--2--|----------------------------|
--2--2--2--2-2-2-2-2--2--2--|--2--2--2--2-2-2-2-2--2--2--|
--0--0--0--0-0-0-0-0--0--0--|--2--2--2--2-2-2-2-2--2--2--|
----------------------------|--2--2--2--2-2-2-2-2--2--2--|


  E  E  E  S S S S E  E  E     E  E  E  S S S S E  E  E   
----------------------------|----------------------------|
----------------------------|----------------------------|
----------------------------|----------------------------|
--4--4--4--4-4-4-4-4--4--4--|--0--0--0--0-0-0-0-0--0--0--|
--4--4--4--4-4-4-4-4--4--4--|--0--0--0--0-0-0-0-0--0--0--|
--4--4--4--4-4-4-4-4--4--4--|--0--0--0--0-0-0-0-0--0--0--|


  E  E  E  S S S S E  E  E     Q    E  S S S S E  S S S S    W                 
----------------------------|-----------------------------|-------------------|
----------------------------|-----------------------------|-------------------|
--2--2--2--2-2-2-2-2--2--2--|-----------------------------|-------------------|
--2--2--2--2-2-2-2-2--2--2--|--2----2--2-2-2-2-2--2-2-2-2-|-------------------|
--0--0--0--0-0-0-0-0--0--0--|--2----2--2-2-2-2-2--2-2-2-2-|-------------------|
----------------------------|--2----2--2-2-2-2-2--2-2-2-2-|-------------------|


  S  E  S E  S  S S S E  S S S S    S  E  S E  S  S S S E  S S S S  
---------------------------------|---------------------------------|
---------------------------------|---------------------------------|
---------------------------------|---------------------------------|
--0--4--4-4--0--4-L-4-4--4-4-4-4-|--0--4--4-4--0--4-L-4-4--4-4-4-4-|
--0--4--4-4--0--4-L-4-4--4-4-4-4-|--0--4--4-4--0--4-L-4-4--4-4-4-4-|
--0h-4--4-4--0h-4-L-4-4--4-4-4-4-|--0h-4--4-4--0h-4-L-4-4--4-4-4-4-|


  S  E  S E  S  S S S E  S S S S    S  E  S E  S  S S S E  S S S S  
---------------------------------|---------------------------------|
---------------------------------|---------------------------------|
---------------------------------|---------------------------------|
--0--4--4-4--0--4-L-4-4--4-4-4-4-|--0--4--4-4--0--2-L-2-2--2-2-2-2-|
--0--4--4-4--0--4-L-4-4--4-4-4-4-|--0--4--4-4--0--2-L-2-2--2-2-2-2-|
--0h-4--4-4--0h-4-L-4-4--4-4-4-4-|--0h-4--4-4--0h-2-L-2-2--2-2-2-2-|


  S  E  S E  S  S S S E  S S S S    S  E  S E  S  S S S E  S S S S  
---------------------------------|---------------------------------|
---------------------------------|---------------------------------|
---------------------------------|---------------------------------|
--0--4--4-4--0--4-L-4-4--4-4-4-4-|--0--4--4-4--0--4-L-4-4--4-4-4-4-|
--0--4--4-4--0--4-L-4-4--4-4-4-4-|--0--4--4-4--0--4-L-4-4--4-4-4-4-|
--0h-4--4-4--0h-4-L-4-4--4-4-4-4-|--0h-4--4-4--0h-4-L-4-4--4-4-4-4-|


  S  E  S E  S  S S S E  S S S S    S  E  S E  S  S S S E  S S S S  
---------------------------------|---------------------------------|
---------------------------------|---------------------------------|
---------------------------------|---------------------------------|
--0--4--4-4--0--4-L-4-4--4-4-4-4-|--0--4--4-4--0--2-L-2-2--2-2-2-2-|
--0--4--4-4--0--4-L-4-4--4-4-4-4-|--0--4--4-4--0--2-L-2-2--2-2-2-2-|
--0h-4--4-4--0h-4-L-4-4--4-4-4-4-|--0h-4--4-4--0h-2-L-2-2--2-2-2-2-|


  W                   W                   W                   W                 
--4----------------|--L----------------|--5----------------|--L----------------|
--5----------------|--L----------------|--5----------------|--L----------------|
--6----------------|--L----------------|--6----------------|--L----------------|
-------------------|-------------------|-------------------|-------------------|
-------------------|-------------------|-------------------|-------------------|
-------------------|-------------------|-------------------|-------------------|


  W                   W                    W                 
--9----------------|--L----------------|--10----------------|
--7----------------|--L----------------|---8----------------|
--7----------------|--L----------------|---7----------------|
-------------------|-------------------|--------------------|
-------------------|-------------------|--------------------|
-------------------|-------------------|--------------------|


                       PM PM PM   PM PM PM   PM          
   W                   S  E  S  S S  S  S  S S  E  Q     
--12----------------|-----------------------------------|
--10----------------|-----------------------------------|
---9----------------|-----------------------------------|
--------------------|-----------------------------------|
--------------------|-----------------------------------|
--------------------|--2h-4--4--L-4--2h-4--L-4----------|


  PM PM PM   PM PM PM   PM            PM PM PM   PM PM PM   PM          
  S  E  S  S S  S  S  S S  E  Q       S  E  S  S S  S  S  S S  E  Q     
-----------------------------------|-----------------------------------|
-----------------------------------|-----------------------------------|
-----------------------------------|-----------------------------------|
-----------------------------------|-----------------------------------|
-----------------------------------|-----------------------------------|
--2h-4--4--L-4--2h-4--L-4----------|--2h-4--4--L-4--2h-4--L-4----------|


  PM PM PM   PM PM PM   PM                                             
  S  E  S  S S  S  S  S S  E  Q       S  E  S S S S  S S E  S S S S S  
-----------------------------------|----------------------------------|
-----------------------------------|----------------------------------|
-----------------------------------|----------------------------------|
-----------------------------------|--2--4--4-L-4-2--4-L-4--4-4-4-4-4-|
-----------------------------------|--2--4--4-L-4-2--4-L-4--4-4-4-4-4-|
--2h-4--4--L-4--2h-4--L-4----------|--2h-4--4-L-4-2h-4-L-4--4-4-4-4-4-|


  S  E  S S S S  S S E  S S S S S    S  E  S S S S  S S E  S S S S S  
----------------------------------|----------------------------------|
----------------------------------|----------------------------------|
----------------------------------|----------------------------------|
--2--4--4-L-4-2--4-L-4--4-4-4-4-4-|--4--5--5-L-5-4--5-L-5--5-5-5-5-5-|
--2--4--4-L-4-2--4-L-4--4-4-4-4-4-|--4--5--5-L-5-4--5-L-5--5-5-5-5-5-|
--2h-4--4-L-4-2h-4-L-4--4-4-4-4-4-|--4h-5--5-L-5-4h-5-L-5--5-5-5-5-5-|


  S S S S S S S S E  E  Q       E  E  E  S S S S E  E  E   
-----------------------------|----------------------------|
-----------------------------|----------------------------|
-----------------------------|----------------------------|
--4-4-4-4-4-4-4-4-4----------|--4--4--4--4-4-4-4-4--4--4--|
--4-4-4-4-4-4-4-4-4----------|--4--4--4--4-4-4-4-4--4--4--|
--4-4-4-4-4-4-4-4-4----------|--4--4--4--4-4-4-4-4--4--4--|


  E  E  E  S S S S E  E  E     E  E  E  S S S S E  E  E   
----------------------------|----------------------------|
----------------------------|----------------------------|
----------------------------|--2--2--2--2-2-2-2-2--2--2--|
--0--0--0--0-0-0-0-0--0--0--|--2--2--2--2-2-2-2-2--2--2--|
--0--0--0--0-0-0-0-0--0--0--|--0--0--0--0-0-0-0-0--0--0--|
--0--0--0--0-0-0-0-0--0--0--|----------------------------|


  E  E  E  S S S S E  E  E     E  E  E  S S S S E  E  E   
----------------------------|----------------------------|
----------------------------|----------------------------|
----------------------------|----------------------------|
--2--2--2--2-2-2-2-2--2--2--|--4--4--4--4-4-4-4-4--4--4--|
--2--2--2--2-2-2-2-2--2--2--|--4--4--4--4-4-4-4-4--4--4--|
--2--2--2--2-2-2-2-2--2--2--|--4--4--4--4-4-4-4-4--4--4--|


  E  E  E  S S S S E  E  E     E  E  E  S S S S E  E  E   
----------------------------|----------------------------|
----------------------------|----------------------------|
----------------------------|--2--2--2--2-2-2-2-2--2--2--|
--0--0--0--0-0-0-0-0--0--0--|--2--2--2--2-2-2-2-2--2--2--|
--0--0--0--0-0-0-0-0--0--0--|--0--0--0--0-0-0-0-0--0--0--|
--0--0--0--0-0-0-0-0--0--0--|----------------------------|


  E  E  E  S S S S E  E  E     E  E  E  S S S S E  E  E   
----------------------------|----------------------------|
----------------------------|----------------------------|
----------------------------|----------------------------|
--2--2--2--2-2-2-2-2--2--2--|--4--4--4--4-4-4-4-4--4--4--|
--2--2--2--2-2-2-2-2--2--2--|--4--4--4--4-4-4-4-4--4--4--|
--2--2--2--2-2-2-2-2--2--2--|--4--4--4--4-4-4-4-4--4--4--|


  E  E  E  S S S S E  E  E     E  E  E  S S S S E  E  E   
----------------------------|----------------------------|
----------------------------|----------------------------|
----------------------------|--2--2--2--2-2-2-2-2--2--2--|
--0--0--0--0-0-0-0-0--0--0--|--2--2--2--2-2-2-2-2--2--2--|
--0--0--0--0-0-0-0-0--0--0--|--0--0--0--0-0-0-0-0--0--0--|
--0--0--0--0-0-0-0-0--0--0--|----------------------------|


  E  E  E  S S S S E  E  E     E  E  E  S S S S E  E  E   
----------------------------|----------------------------|
----------------------------|----------------------------|
----------------------------|----------------------------|
--2--2--2--2-2-2-2-2--2--2--|--4--4--4--4-4-4-4-4--4--4--|
--2--2--2--2-2-2-2-2--2--2--|--4--4--4--4-4-4-4-4--4--4--|
--2--2--2--2-2-2-2-2--2--2--|--4--4--4--4-4-4-4-4--4--4--|


  E  E  E  S S S S E  E  E     E  E  E  S S S S E  E  E   
----------------------------|----------------------------|
----------------------------|----------------------------|
----------------------------|--2--2--2--2-2-2-2-2--2--2--|
--0--0--0--0-0-0-0-0--0--0--|--2--2--2--2-2-2-2-2--2--2--|
--0--0--0--0-0-0-0-0--0--0--|--0--0--0--0-0-0-0-0--0--0--|
--0--0--0--0-0-0-0-0--0--0--|----------------------------|


  Q    E  S S S S S S E  S S    E  E  E  S S S S E  E  S S  
-----------------------------|-----------------------------|
-----------------------------|-----------------------------|
-----------------------------|-----------------------------|
--2----2--2-2-2-2-2-2-2--2-2-|--4--4--4--4-4-4-4-4--4--4-4-|
--2----2--2-2-2-2-2-2-2--2-2-|--4--4--4--4-4-4-4-4--4--4-4-|
--2----2--2-2-2-2-2-2-2--2-2-|--4--4--4--4-4-4-4-4--4--4-4-|


  E  E  E  S S S S E  E  E     E  E  E  S S S S E  E  E   
----------------------------|----------------------------|
----------------------------|----------------------------|
----------------------------|--2--2--2--2-2-2-2-2--2--2--|
--0--0--0--0-0-0-0-0--0--0--|--2--2--2--2-2-2-2-2--2--2--|
--0--0--0--0-0-0-0-0--0--0--|--0--0--0--0-0-0-0-0--0--0--|
--0--0--0--0-0-0-0-0--0--0--|----------------------------|


  E  E  E  S S S S E  E  E     E  E  E  S S S S E  E  S S  
----------------------------|-----------------------------|
----------------------------|-----------------------------|
----------------------------|-----------------------------|
--2--2--2--2-2-2-2-2--2--2--|--4--4--4--4-4-4-4-4--4--4-4-|
--2--2--2--2-2-2-2-2--2--2--|--4--4--4--4-4-4-4-4--4--4-4-|
--2--2--2--2-2-2-2-2--2--2--|--4--4--4--4-4-4-4-4--4--4-4-|


  E  E  E  S S S S E  E  E     E  E  E  S S S S E  E  E   
----------------------------|----------------------------|
----------------------------|----------------------------|
----------------------------|--2--2--2--2-2-2-2-2--2--2--|
--0--0--0--0-0-0-0-0--0--0--|--2--2--2--2-2-2-2-2--2--2--|
--0--0--0--0-0-0-0-0--0--0--|--0--0--0--0-0-0-0-0--0--0--|
--0--0--0--0-0-0-0-0--0--0--|----------------------------|


  E  E  E  S S S S E  E  E     E  E  E  S S S S E  E  S S  
----------------------------|-----------------------------|
----------------------------|-----------------------------|
----------------------------|-----------------------------|
--2--2--2--2-2-2-2-2--2--2--|--0--0--0--0-0-0-0-0--0--0-0-|
--2--2--2--2-2-2-2-2--2--2--|--0--0--0--0-0-0-0-0--0--0-0-|
--2--2--2--2-2-2-2-2--2--2--|--0--0--0--0-0-0-0-0--0--0-0-|


  E  E  E  S S S S E  E  S S    E  E  E  S S S S E  E  S S  
-----------------------------|-----------------------------|
-----------------------------|-----------------------------|
-----------------------------|-----------------------------|
--2--2--2--2-2-2-2-2--2--2-2-|--4--4--4--4-4-4-4-4--4--4-4-|
--2--2--2--2-2-2-2-2--2--2-2-|--4--4--4--4-4-4-4-4--4--4-4-|
--2--2--2--2-2-2-2-2--2--2-2-|--4--4--4--4-4-4-4-4--4--4-4-|


  E  E  E  S S S S E  E  S S    E  E  E  S S S S E  E  E   
-----------------------------|----------------------------|
-----------------------------|----------------------------|
-----------------------------|----------------------------|
--4--4--4--4-4-4-4-4--4--4-4-|--0--0--0--0-0-0-0-0--0--0--|
--4--4--4--4-4-4-4-4--4--4-4-|--0--0--0--0-0-0-0-0--0--0--|
--4--4--4--4-4-4-4-4--4--4-4-|--0--0--0--0-0-0-0-0--0--0--|


  E  E  E  S S S S E  E  E     E  E  E  S S S S E  E  E   
----------------------------|----------------------------|
----------------------------|----------------------------|
----------------------------|----------------------------|
--2--2--2--2-2-2-2-2--2--2--|--0--0--0--0-0-0-0-0--0--0--|
--2--2--2--2-2-2-2-2--2--2--|--0--0--0--0-0-0-0-0--0--0--|
--2--2--2--2-2-2-2-2--2--2--|--0--0--0--0-0-0-0-0--0--0--|


                               PM PM PM   PM PM PM   PM          
  E  E  E  S S S S E  E  E     S  E  S  S S  S  S  S S  E  Q     
----------------------------|-----------------------------------|
----------------------------|-----------------------------------|
----------------------------|-----------------------------------|
--2--2--2--2-2-2-2-2--2--2--|-----------------------------------|
--2--2--2--2-2-2-2-2--2--2--|-----------------------------------|
--2--2--2--2-2-2-2-2--2--2--|--2h-4--4--L-4--2h-4--L-4----------|


  PM PM PM   PM PM PM   PM            PM PM PM   PM PM PM   PM          
  S  E  S  S S  S  S  S S  E  Q       S  E  S  S S  S  S  S S  E  Q     
-----------------------------------|-----------------------------------|
-----------------------------------|-----------------------------------|
-----------------------------------|-----------------------------------|
-----------------------------------|-----------------------------------|
-----------------------------------|-----------------------------------|
--2h-4--4--L-4--2h-4--L-4----------|--2h-4--4--L-4--2h-4--L-4----------|


  PM PM PM   PM PM PM   PM                                             
  S  E  S  S S  S  S  S S  E  Q       S  E  S S S S  S S E  S S S S S  
-----------------------------------|----------------------------------|
-----------------------------------|----------------------------------|
-----------------------------------|----------------------------------|
-----------------------------------|--2--4--4-L-4-2--4-L-4--4-4-4-4-4-|
-----------------------------------|--2--4--4-L-4-2--4-L-4--4-4-4-4-4-|
--2h-4--4--L-4--2h-4--L-4----------|--2h-4--4-L-4-2h-4-L-4--4-4-4-4-4-|


  S  E  S S S S  S S E  S S S S S    S  E  S S S S  S S E  S S S S S  
----------------------------------|----------------------------------|
----------------------------------|----------------------------------|
----------------------------------|----------------------------------|
--2--4--4-L-4-2--4-L-4--4-4-4-4-4-|--4--5--5-L-5-4--5-L-5--5-5-5-5-5-|
--2--4--4-L-4-2--4-L-4--4-4-4-4-4-|--4--5--5-L-5-4--5-L-5--5-5-5-5-5-|
--2h-4--4-L-4-2h-4-L-4--4-4-4-4-4-|--4h-5--5-L-5-4h-5-L-5--5-5-5-5-5-|


          PM PM PM PM                                                 
  S  E  S S  S  E  Q    Q       W                   W                 
-----------------------------|--4----------------|--L----------------|
-----------------------------|--5----------------|--L----------------|
-----------------------------|-------------------|-------------------|
--2--4--4--------------------|-------------------|-------------------|
--2--4--4--------------------|-------------------|-------------------|
--2h-4--4-4--4--4--4---------|-------------------|-------------------|


  W                   W                   W                  
-------------------|-------------------|-------------------||
-------------------|-------------------|-------------------||
-------------------|-------------------|-------------------||
-------------------|-------------------|-------------------||
-------------------|-------------------|-------------------||
-------------------|-------------------|-------------------|

Duration Legend
---------------
W - whole
H - half
Q - quarter
E - 8th
S - 16th
T - 32nd
X - 64th
. - note dotted
|-n-|  - n-tuplets


Tablature Legend
----------------
L - tied note
x - dead note
g - grace note
(n) - ghost note
h - hammer on
Pm - palm mute
comments
We did not receive enough feedback on this tab! Please rate:
print report bad tab
1 2 3 4 5
I want to post or [tab]
guest
You may want to rate the tab now too:
select rating
Please do not post tabs as comments. Select "correction" instead!