Oops, an error
Loading. Please wait.

Riyuu Tab

404 views 1 this week
no commentswrite comment
1 2 3 4 5
please rate
Autoscroll
+/-
esc
set tempo
stop
Contributor
Difficulty
intermediate
WARNING: You are trying to view
                                    content from Ultimate-Guitar.com
                                    in an unauthorized application,
                                    which is prohibited.

                                    Please use an official Ultimate
                                    Guitar Tabs application for iPhone,
                                    iPad or Android to access legitimate
                                    chords, guitar, bass, and drum tabs
                                    from Ultimate-Guitar.com database.

                                    Type "ultimate guitar tabs" in Apple
                                    App Store's or Android Market's
                                    search to find the application.
-------------------------------------------------------------------------------
                             Riyuu - Dir en grey
-------------------------------------------------------------------------------
Tabbed by: DeadxFreedom
Email: R_to_the_core@hotmail.co.uk

Tuning: Standard / E A D G B E

Key: Em Tempo: 116 Time Signature: 4/4

Die



     E  E  E  E  E  E  E  E     E  E  E  E  E  E  E  E   
E||--------------------------|--------------------------|
B||--------------------------|--------------------------|
G||--9--9--9--9--5--5--5--5--|--7--7--7--7--4--4--5--7--|
D||--9--9--9--9--5--5--5--5--|--7--7--7--7--4--4--5--7--|
A||--7--7--7--7--3--3--3--3--|--5--5--5--5--2--2--3--5--|
E||--------------------------|--------------------------|


  E  E  E  E  E  E  E  E     E  E  E  E  E  E  E  E   
--------------------------|--------------------------|
--------------------------|--------------------------|
--9--9--9--9--5--5--5--5--|--7--7--7--7--------------|
--9--9--9--9--5--5--5--5--|--7--7--7--7--------7--7--|
--7--7--7--7--3--3--3--3--|--5--5--5--5--5--5--5--5--|
--------------------------|--------------3--3--------|


  E  E  E  E  E  E  E  E     E  E  E  E  E  E  E  E   
--------------------------|--------------------------|
--------------------------|--------------------------|
--9--9--9--9--5--5--5--5--|--7--7--7--7--4--4--5--7--|
--9--9--9--9--5--5--5--5--|--7--7--7--7--4--4--5--7--|
--7--7--7--7--3--3--3--3--|--5--5--5--5--2--2--3--5--|
--------------------------|--------------------------|


  E  E  E  E  E  E  E  E     E  E  E  E  Q    Q       W                 
--------------------------|------------------------|-------------------|
--------------------------|------------------------|-------------------|
--9--9--9--9--5--5--5--5--|--7--7--7--7------------|-------------------|
--9--9--9--9--5--5--5--5--|--7--7--7--7------------|-------------------|
--7--7--7--7--3--3--3--3--|--5--5--5--5--5----4----|--2----------------|
--------------------------|--------------3----2----|--0----------------|


  W                    W                   W                 
--------------------|-------------------|-------------------|
--------------------|-------------------|-------------------|
--------------------|-------------------|-------------------|
--------------------|-------------------|-------------------|
--x\----------------|-------------------|-------------------|
--x\----------------|-------------------|-------------------|


  W                   W                   W                   W                 
-------------------|-------------------|-------------------|-------------------|
-------------------|-------------------|-------------------|-------------------|
-------------------|-------------------|-------------------|-------------------|
-------------------|-------------------|-------------------|-------------------|
-------------------|-------------------|-------------------|-------------------|
-------------------|-------------------|-------------------|-------------------|


  W                   W                   W                   W                 
-------------------|-------------------|-------------------|-------------------|
-------------------|-------------------|-------------------|-------------------|
-------------------|-------------------|-------------------|-------------------|
-------------------|-------------------|-------------------|-------------------|
-------------------|-------------------|-------------------|-------------------|
-------------------|-------------------|-------------------|-------------------|


  W                   W                   H        E   Q.       
-------------------|-------------------|-----------------------|
-------------------|-------------------|-----------------------|
-------------------|-------------------|-----------------------|
-------------------|-------------------|-----------------------|
-------------------|-------------------|---------------x\------|
-------------------|-------------------|-----------------------|


  S S E  S S E  E  E  E  E     E  E  E  E  E  E  E  E   
----------------------------|--------------------------|
----------------------------|--------------------------|
----------------------------|--9--9--9--9--5--5--5--5--|
------4------4--5--4--7--8--|--9--9--9--9--5--5--5--5--|
--x-x-2--x-x-2--3--2--5--6--|--7--7--7--7--3--3--3--3--|
--x-x----x-x----------------|--------------------------|


  E  E  E  E  E  E  E  E     E  E  E  E  E  E  E  E   
--------------------------|--------------------------|
--------------------------|--------------------------|
--7--7--7--7--4--4--5--7--|--9--9--9--9--5--5--5--5--|
--7--7--7--7--4--4--5--7--|--9--9--9--9--5--5--5--5--|
--5--5--5--5--2--2--3--5--|--7--7--7--7--3--3--3--3--|
--------------------------|--------------------------|


  E  E  E  E  E  E  E  E     E  E  E  E  E  E  E  E   
--------------------------|--------------------------|
--------------------------|--------------------------|
--7--7--7--7--------------|--9--9--9--9--5--5--5--5--|
--7--7--7--7--------7--7--|--9--9--9--9--5--5--5--5--|
--5--5--5--5--5--5--5--5--|--7--7--7--7--3--3--3--3--|
--------------3--3--------|--------------------------|


  E  E  E  E  E  E  E  E     E  E  E  E  E  E  E  E     E  E  E  E  Q    Q     
--------------------------|--------------------------|------------------------|
--------------------------|--------------------------|------------------------|
--7--7--7--7--4--4--5--7--|--9--9--9--9--5--5--5--5--|--7--7--7--7------------|
--7--7--7--7--4--4--5--7--|--9--9--9--9--5--5--5--5--|--7--7--7--7------------|
--5--5--5--5--2--2--3--5--|--7--7--7--7--3--3--3--3--|--5--5--5--5--5----4----|
--------------------------|--------------------------|--------------3----2----|


  W                   H        E   Q.         W                 
-------------------|-----------------------|-------------------|
-------------------|-----------------------|-------------------|
-------------------|-----------------------|-------------------|
-------------------|-----------------------|-------------------|
--2----------------|--L--------L---x\------|-------------------|
--0----------------|--L--------L-----------|-------------------|


  W                   W                   W                   W                 
-------------------|-------------------|-------------------|-------------------|
-------------------|-------------------|-------------------|-------------------|
-------------------|-------------------|-------------------|-------------------|
-------------------|-------------------|-------------------|-------------------|
-------------------|-------------------|-------------------|-------------------|
-------------------|-------------------|-------------------|-------------------|


  W                   W                   W                   W                 
-------------------|-------------------|-------------------|-------------------|
-------------------|-------------------|-------------------|-------------------|
-------------------|-------------------|-------------------|-------------------|
-------------------|-------------------|-------------------|-------------------|
-------------------|-------------------|-------------------|-------------------|
-------------------|-------------------|-------------------|-------------------|


  W                   W                   W                   W                 
-------------------|-------------------|-------------------|-------------------|
-------------------|-------------------|-------------------|-------------------|
-------------------|-------------------|-------------------|-------------------|
-------------------|-------------------|-------------------|-------------------|
-------------------|-------------------|-------------------|-------------------|
-------------------|-------------------|-------------------|-------------------|


  S S E  S S E  E  E  E  E     E  E  S S S S E  E  S S S S  
----------------------------|------------------------------|
----------------------------|------------------------------|
----------------------------|------------------------------|
------4------4--5--4--7--4--|--5--5----------4--4----------|
--x-x-2--x-x-2--3--2--5--2--|--3--3--x-x-x-x-2--2--x-x-x-x-|
--x-x----x-x----------------|--------x-x-x-x-------x-x-x-x-|


  E  E  S S E  S S E  E  E     E  E  S S S S E  E  S S S S  
----------------------------|------------------------------|
----------------------------|------------------------------|
----------------------------|------------------------------|
----------------------------|--5--5----------7--7----------|
--2--2--x-x-2--x-2-2--2--2--|--3--3--x-x-x-x-5--5--x-x-x-x-|
--0--0--x-x-0--x-0-0--0--0--|--------x-x-x-x-------x-x-x-x-|


  E  E  E  E  E  E  E  E     E  E  S S S S E  E  S S S S  
--------------------------|------------------------------|
--------------------------|------------------------------|
--------------------------|------------------------------|
--9--9--8--8--7--7--6--6--|--5--5----------4--4----------|
--7--7--6--6--5--5--4--4--|--3--3--x-x-x-x-2--2--x-x-x-x-|
--------------------------|--------x-x-x-x-------x-x-x-x-|


  E  E  S S E  S S E  E  E     E  E  S S S S E  E  S S S S  
----------------------------|------------------------------|
----------------------------|------------------------------|
----------------------------|------------------------------|
----------------------------|--5--5----------7--7----------|
--2--2--x-x-2--x-2-2--2--2--|--3--3--x-x-x-x-5--5--x-x-x-x-|
--0--0--x-x-0--x-0-0--0--0--|--------x-x-x-x-------x-x-x-x-|


  E  E  E  E  E  E  E  E     E  E  E  E  E  E  E  E   
--------------------------|--------------------------|
--------------------------|--------------------------|
--9--9--9--9--5--5--5--5--|--7--7--7--7--4--4--5--7--|
--9--9--9--9--5--5--5--5--|--7--7--7--7--4--4--5--7--|
--7--7--7--7--3--3--3--3--|--5--5--5--5--2--2--3--5--|
--------------------------|--------------------------|


  E  E  E  E  E  E  E  E     E  E  E  E  E  E  E  E   
--------------------------|--------------------------|
--------------------------|--------------------------|
--9--9--9--9--5--5--5--5--|--7--7--7--7--------------|
--9--9--9--9--5--5--5--5--|--7--7--7--7--------7--7--|
--7--7--7--7--3--3--3--3--|--5--5--5--5--5--5--5--5--|
--------------------------|--------------3--3--------|


  E  E  E  E  E  E  E  E     E  E  E  E  E  E  E  E   
--------------------------|--------------------------|
--------------------------|--------------------------|
--9--9--9--9--5--5--5--5--|--7--7--7--7--4--4--5--7--|
--9--9--9--9--5--5--5--5--|--7--7--7--7--4--4--5--7--|
--7--7--7--7--3--3--3--3--|--5--5--5--5--2--2--3--5--|
--------------------------|--------------------------|


  E  E  E  E  E  E  E  E     E  E  E  E  Q    Q     
--------------------------|------------------------|
--------------------------|------------------------|
--9--9--9--9--5--5--5--5--|--7--7--7--7------------|
--9--9--9--9--5--5--5--5--|--7--7--7--7------------|
--7--7--7--7--3--3--3--3--|--5--5--5--5--5----4----|
--------------------------|--------------3----2----|


    E  E  E  E  E  E  E  E     E  E  E  E  E  E  E  E   
|---------------------------|--------------------------|
|---------------------------|--------------------------|
|*--9--9--9--9--5--5--5--5--|--7--7--7--7--4--4--5--7--|
|*--9--9--9--9--5--5--5--5--|--7--7--7--7--4--4--5--7--|
|---7--7--7--7--3--3--3--3--|--5--5--5--5--2--2--3--5--|
|---------------------------|--------------------------|


  E  E  E  E  E  E  E  E     E  E  E  E  Q    Q       
--------------------------|-------------------------||
--------------------------|-------------------------||
--9--9--9--9--5--5--5--5--|--7--7--7--7------------*||
--9--9--9--9--5--5--5--5--|--7--7--7--7------------*||
--7--7--7--7--3--3--3--3--|--5--5--5--5--5----4-----||
--------------------------|--------------3----2-----||


  E  E  E  E  E  E  E  E     E  E  E  E  Q    Q       Q    E  E  H         
--------------------------|------------------------|--0----0--0--L--------|
--------------------------|------------------------|--0----0--0--L--------|
--9--9--9--9--5--5--5--5--|--7--7--7--7------------|--0----0--0--L--------|
--9--9--9--9--5--5--5--5--|--7--7--7--7------------|--2----2--2--L--------|
--7--7--7--7--3--3--3--3--|--5--5--5--5--5----4----|--2----2--2--L--------|
--------------------------|--------------3----2----|--0----0--0--L--------|


  H.           E  S S    W                   Q.     E  E  E  E  S S  
--L------------0--0-0-|--0----------------|--L------0--L--0--0--0-0-|
--L------------0--0-0-|--0----------------|--L------0--L--0--0--0-0-|
--L------------0--0-0-|--0----------------|--L------0--L--0--0--0-0-|
--L------------2--2-2-|--2----------------|--L------2--L--2--2--2-2-|
--L------------2--2-2-|--3----------------|--L------3--L--3--3--3-3-|
--L------------0--0-0-|-------------------|-------------------------|


  W                   Q.     E  E  E  E  S S    W                 
--0----------------|--L------0--L--0--0--0-0-|--2----------------|
--1----------------|--L------1--L--1--1--1-1-|--0----------------|
--2----------------|--L------2--L--2--2--2-2-|--2----------------|
--2----------------|--L------2--L--2--2--2-2-|--1----------------|
--0----------------|--L------0--L--0--0--0-0-|--2----------------|
-------------------|-------------------------|-------------------|


  Q.     E  E  E  E  S S    Q    E  E  H           H.           E  S S  
--2------2--L--2--2--2-2-|--0----0--0--L--------|--L------------0--0-0-|
--0------0--L--0--0--0-0-|--0----0--0--L--------|--L------------0--0-0-|
--2------2--L--2--2--2-2-|--0----0--0--L--------|--L------------0--0-0-|
--1------1--L--1--1--1-1-|--2----2--2--L--------|--L------------2--2-2-|
--2------2--L--2--2--2-2-|--2----2--2--L--------|--L------------2--2-2-|
-------------------------|--0----0--0--L--------|--L------------0--0-0-|


  W                   Q.     E  E  E  E  S S    W                 
--0----------------|--L------0--L--0--0--0-0-|--0----------------|
--0----------------|--L------0--L--0--0--0-0-|--1----------------|
--0----------------|--L------0--L--0--0--0-0-|--2----------------|
--2----------------|--L------2--L--2--2--2-2-|--2----------------|
--3----------------|--L------3--L--3--3--3-3-|--0----------------|
-------------------|-------------------------|-------------------|


  H        E  E  E  S S    H.           E  S S    H        E  E  S S S S  
--L--------L--0--0--0-0-|--2------------L--2-2-|--2--------2--2--x-x-x-x-|
--L--------L--1--1--1-1-|--0------------L--0-0-|--0--------0--0--x-x-x-x-|
--L--------L--2--2--2-2-|--2------------L--2-2-|--2--------2--2--x-x-x-x-|
--L--------L--2--2--2-2-|--1------------L--1-1-|--1--------1--1----------|
--L--------L--0--0--0-0-|--2------------L--2-2-|--2--------2--2----------|
------------------------|----------------------|-------------------------|


  Clean tone with phaser                                                  
  E                      E  E  E  E  E  E  E     E  E  E  E  E  E  E  E   
--3----------------------3--3--3--3--3--0--0--|--0--0--0--3--3--3--2--2--|
--3----------------------3--3--3--3--3--3--3--|--3--3--3--3--3--3--3--3--|
--0----------------------0--0--0--0--0--0--0--|--2--2--2--2--2--2--2--2--|
--2----------------------2--2--2--2--2--2--2--|--0--0--0--0--0--0--0--0--|
--3----------------------3--3--3--3--3--3--3--|--------------------------|
----------------------------------------------|--------------------------|


  E  E  E  E  E  E  E  E     E  E  E  E  E  E  E  E   
--2--2--2--2--2--2--2--2--|--3--3--3--3--3--3--5--5--|
--0--0--0--0--0--0--0--0--|--3--3--3--3--3--3--5--5--|
--2--2--2--2--2--2--2--2--|--0--0--0--0--0--0--4--4--|
--1--1--1--1--1--1--1--1--|--2--2--2--2--2--2--------|
--2--2--2--2--2--2--2--2--|--2--2--2--2--2--2--------|
--------------------------|--------------------------|


  E  E  E  E  E  E  E  E     E  E  E  E  E  E  E  E   
--7--7--7--7--7--7--7--7--|--7--7--7--7--7--7--7--7--|
--5--5--5--5--5--5--5--5--|--7--7--7--7--7--7--7--7--|
--5--5--5--5--5--5--5--5--|--7--7--7--7--7--7--7--7--|
--------------------------|--------------------------|
--------------------------|--------------------------|
--------------------------|--------------------------|

                                         Distortion.
  E  E  E  E  E  E  E  E     H        E  Q.         S S E  S S E  E  E  E  E   
--7--7--7--7--7--7--7--7--|----------------------|----------------------------|
--8--8--8--8--8--8--8--8--|----------------------|----------------------------|
--9--9--9--9--9--9--9--9--|----------------------|----------------------------|
--------------------------|--------------x\------|------4------4--5--4--7--4--|
--------------------------|----------------------|--x-x-2--x-x-2--3--2--5--2--|
--------------------------|----------------------|--x-x----x-x----------------|


  E  E  E  E  Q    Q       E  E  E  E  E  E  E  E     E  E  E  E  E  E  E  E   
------------------------|--------------------------|--------------------------|
------------------------|--------------------------|--------------------------|
--7--7--7--7------------|--9--9--9--9--5--5--5--5--|--7--7--7--7--4--4--5--7--|
--7--7--7--7------------|--9--9--9--9--5--5--5--5--|--7--7--7--7--4--4--5--7--|
--5--5--5--5--5----4----|--7--7--7--7--3--3--3--3--|--5--5--5--5--2--2--3--5--|
--------------3----2----|--------------------------|--------------------------|


  E  E  E  E  E  E  E  E     E  E  E  E  E  E  E  E   
--------------------------|--------------------------|
--------------------------|--------------------------|
--9--9--9--9--5--5--5--5--|--7--7--7--7--------------|
--9--9--9--9--5--5--5--5--|--7--7--7--7--------7--7--|
--7--7--7--7--3--3--3--3--|--5--5--5--5--5--5--5--5--|
--------------------------|--------------3--3--------|


  E  E  E  E  E  E  E  E     E  E  E  E  E  E  E  E   
--------------------------|--------------------------|
--------------------------|--------------------------|
--9--9--9--9--5--5--5--5--|--7--7--7--7--4--4--5--7--|
--9--9--9--9--5--5--5--5--|--7--7--7--7--4--4--5--7--|
--7--7--7--7--3--3--3--3--|--5--5--5--5--2--2--3--5--|
--------------------------|--------------------------|


  E  E  E  E  E  E  E  E     E  E  E  E  E  E  E  S S  
--------------------------|---------------------------|
--------------------------|---------------------------|
--9--9--9--9--5--5--5--5--|--7--7--7--7--7--7--7------|
--9--9--9--9--5--5--5--5--|--7--7--7--7--7--7--7------|
--7--7--7--7--3--3--3--3--|--5--5--5--5--5--5--5--x-x-|
--------------------------|-----------------------x-x-|


  E  E  E  E  E  E  E  E     E  E  E  E  E  E  E  E   
--------------------------|--------------------------|
--------------------------|--------------------------|
--9--9--9--9--5--5--5--5--|--7--7--7--7--4--4--5--7--|
--9--9--9--9--5--5--5--5--|--7--7--7--7--4--4--5--7--|
--7--7--7--7--3--3--3--3--|--5--5--5--5--2--2--3--5--|
--------------------------|--------------------------|


  E  E  E  E  E  E  E  E     E  E  E  E  E  E  E  E   
--------------------------|--------------------------|
--------------------------|--------------------------|
--9--9--9--9--5--5--5--5--|--7--7--7--7--------------|
--9--9--9--9--5--5--5--5--|--7--7--7--7--------7--7--|
--7--7--7--7--3--3--3--3--|--5--5--5--5--5--5--5--5--|
--------------------------|--------------3--3--------|


  E  E  E  E  E  E  E  E     E  E  E  E  E  E  E  E   
--------------------------|--------------------------|
--------------------------|--------------------------|
--9--9--9--9--5--5--5--5--|--7--7--7--7--4--4--5--7--|
--9--9--9--9--5--5--5--5--|--7--7--7--7--4--4--5--7--|
--7--7--7--7--3--3--3--3--|--5--5--5--5--2--2--3--5--|
--------------------------|--------------------------|


  E  E  E  E  E  E  E  E     E  E  E  E  Q    Q       E  E  E  E  E  E  E  E   
--------------------------|------------------------|--------------------------|
--------------------------|------------------------|--------------------------|
--9--9--9--9--5--5--5--5--|--7--7--7--7------------|--9--9--9--9--5--5--5--5--|
--9--9--9--9--5--5--5--5--|--7--7--7--7------------|--9--9--9--9--5--5--5--5--|
--7--7--7--7--3--3--3--3--|--5--5--5--5--5----4----|--7--7--7--7--3--3--3--3--|
--------------------------|--------------3----2----|--------------------------|


  E  E  E  E  E  E  E  E     E  E  E  E  E  E  E  E   
--------------------------|--------------------------|
--------------------------|--------------------------|
--7--7--7--7--4--4--5--7--|--9--9--9--9--5--5--5--5--|
--7--7--7--7--4--4--5--7--|--9--9--9--9--5--5--5--5--|
--5--5--5--5--2--2--3--5--|--7--7--7--7--3--3--3--3--|
--------------------------|--------------------------|


  E  E  E  E  E  E  E  E     E  E  E  E  E  E  E  E   
--------------------------|--------------------------|
--------------------------|--------------------------|
--7--7--7--7--------------|--9--9--9--9--5--5--5--5--|
--7--7--7--7--------7--7--|--9--9--9--9--5--5--5--5--|
--5--5--5--5--5--5--5--5--|--7--7--7--7--3--3--3--3--|
--------------3--3--------|--------------------------|


  E  E  E  E  E  E  E  E     E  E  E  E  E  E  E  E     E  E  E  E  Q    Q     
--------------------------|--------------------------|------------------------|
--------------------------|--------------------------|------------------------|
--7--7--7--7--4--4--5--7--|--9--9--9--9--5--5--5--5--|--7--7--7--7------------|
--7--7--7--7--4--4--5--7--|--9--9--9--9--5--5--5--5--|--7--7--7--7------------|
--5--5--5--5--2--2--3--5--|--7--7--7--7--3--3--3--3--|--5--5--5--5--5----4----|
--------------------------|--------------------------|--------------3----2----|


  E  E  E  E  E  E  E  E     E  E  E  E  E  E  E  E   
--------------------------|--------------------------|
--------------------------|--------------------------|
--9--9--9--9--5--5--5--5--|--7--7--7--7--4--4--5--7--|
--9--9--9--9--5--5--5--5--|--7--7--7--7--4--4--5--7--|
--7--7--7--7--3--3--3--3--|--5--5--5--5--2--2--3--5--|
--------------------------|--------------------------|


  E  E  E  E  E  E  E  E     E  E  E  E  E  E  E  E   
--------------------------|--------------------------|
--------------------------|--------------------------|
--9--9--9--9--5--5--5--5--|--7--7--7--7--------------|
--9--9--9--9--5--5--5--5--|--7--7--7--7--------7--7--|
--7--7--7--7--3--3--3--3--|--5--5--5--5--5--5--5--5--|
--------------------------|--------------3--3--------|


  E  E  E  E  E  E  E  E     E  E  E  E  E  E  E  E   
--------------------------|--------------------------|
--------------------------|--------------------------|
--9--9--9--9--5--5--5--5--|--7--7--7--7--4--4--5--7--|
--9--9--9--9--5--5--5--5--|--7--7--7--7--4--4--5--7--|
--7--7--7--7--3--3--3--3--|--5--5--5--5--2--2--3--5--|
--------------------------|--------------------------|


  E  E  E  E  E  E  E  E     E  E  E  E  Q    Q      
--------------------------|------------------------||
--------------------------|------------------------||
--9--9--9--9--5--5--5--5--|--7--7--7--7------------||
--9--9--9--9--5--5--5--5--|--7--7--7--7------------||
--7--7--7--7--3--3--3--3--|--5--5--5--5--5----4----||
--------------------------|--------------3----2----||




Duration Legend
---------------
W - whole
H - half
Q - quarter
E - 8th
S - 16th
T - 32nd
X - 64th
. - note dotted
|-n-|  - n-tuplets


Tablature Legend
----------------
L - tied note
x - dead note
g - grace note
(n) - ghost note
> - accentuded note
NH - natural harmonic
AH - artificial harmonic
TH - tapped harmonic
SH - semi harmonic
PH - pitch harmonic
h - hammer on
p - pull off
b - bend
br - bendRelease
pb - preBend
pbr - preBendRelease
brb - bendReleaseBend
\n/ - tremolo bar dip
\n - tremolo bar dive
-/n - tremolo bar Release up
/n\ - tremolo bar inverted dip
/n - tremolo bar return
-\n - tremolo bar Release down
S - shift slide
s - legato slide
/ -  slide into from below or out of upwards
\ -  slide into from above or out of downwards
~ - vibrato
W - wide vibrato
tr - trill
TP - tremolo picking
T - tapping
S - slap
P - pop
< - fade in
^ - brush up
v - brush down
comments
We did not receive enough feedback on this tab! Please rate:
print report bad tab
1 2 3 4 5
I want to post or [tab]
guest
You may want to rate the tab now too:
select rating
Please do not post tabs as comments. Select "correction" instead!