Oops, an error
Loading. Please wait.

Ryoujoku No Ame Bass Tab

ver1
ver1

Whole song

More versions @911Tabs.com
811 views 1 this week
no commentswrite comment
1 2 3 4 5
please rate
Autoscroll
+/-
esc
set tempo
stop
Contributor
WARNING: You are trying to view
                                    content from Ultimate-Guitar.com
                                    in an unauthorized application,
                                    which is prohibited.

                                    Please use an official Ultimate
                                    Guitar Tabs application for iPhone,
                                    iPad or Android to access legitimate
                                    chords, guitar, bass, and drum tabs
                                    from Ultimate-Guitar.com database.

                                    Type "ultimate guitar tabs" in Apple
                                    App Store's or Android Market's
                                    search to find the application.
this song is hard to hear but i think its close. Enjoy ;)
Band: dir en grey
Song: RYOUJOKU NO AME
Tuning: C#G#C#F# (Drop D+Half step down)



4/4 time
     rest
F#|--------||
C#|--------||
G#|--------||
C#|--------||



  Riff A
  Q    Q    Q+E   E    E  E  Q    E  E  E  E    Q+E   E  Q+E   E
|--------------------|------------------------|-------------------|
|--------------------|------------------------|-------------------|
|--------------------|------------------------|-------------------|
|-0----0----0-----0--|-0--0--7----3--0--2--3--|-5-----5--5-----3--|




  Q+E   Q    E  E  E    Q    Q    Q+E   E    E  E  Q    E  E  E  E
|---------------------|--------------------|------------------------|
|---------------------|--------------------|------------------------|
|---------------------|--------------------|------------------------|
|-2-----3----3--3--2--|-0----0----0-----0--|-0--0--7----3--0--2--3--|



                                  end Riff A
  Q+E   E  Q    E  E    Q+E   E  E  E  Q
|---------------------|---------------------||
|---------------------|---------------------||
|---------------------|-------4--4----------||
|-5-----5--5----3s/5--|-7-----------7--5s\--||



  Fig.1                                end Fig.1
  Q    E  E  Q    E  E    Q    E  E  Q    E  E
|-----------------------|-----------------------||
|-----------------------|-----------------------||
|-----------------------|-----------------------||
|-0----0-----0----0-----|-0----0-----0----0-----||



  Riff B
  Q    E  E  Q    E  E    Q    E  E  Q    E  E    Q    E  E  Q    E  E
|-----------------------|-----------------------|-----------------------|
|-----------------------|-----------------------|-----------------------|
|-----------------------|-----------------------|-----------------------|
|-0----0-----0----0-----|-0----0-----0----0-----|-5----5-----5----5--3--|



              end Riff B
  Q    E  E  Q    E  E
|-----------------------|| Repeat 2X
|-----------------------||
|-----------------------||
|-2----2-----3----3--2--||



  Riff C
  S S E  E  E  E  E  Q     S S E  E  E  E  E  Q     S S E  E  E  E  E  Q
|------------------------|------------------------|------------------------|
|------------------------|------------------------|------------------------|
|------------------------|------------------------|------------------------|
|-0-0-0--0--8--7--5--3---|-0-0-0--0--8--7--5--2---|-0-0-0--0--8--7--5--2---|



               end Riff C
  S S E  E  E  E  E  Q
|------------------------||
|------------------------||
|------------------------||
|-0-0-0--0--5--7--5--2---||



  Fig.2
  E  S S E  E  Q    E  E    Q    E  E  Q    E  E    E  S S Q    Q    E  E
|-------------------------|-----------------------|------------------------|
|-------------------------|-----------------------|------------------------|
|-------------------------|-----------------------|------------------------|
|-0--5/7\0-----0----0-----|-0----0-----0----0-----|-5--5/7\5----5----5--3--|



                  end Fig.2
  E  S S Q    E  S S E  E
|--------------------------|| Repeat 2X
|--------------------------||
|----5/7---------7/8-------||
|-2------2----3------3--2--||



  Fig.3
  E  S S S S E  E  S S S S E    E  S S S S E  E  S S S S E
|-----------------------------|-----------------------------|
|-----------------------------|-----------------------------|
|-----------------------------|-----------------------------|
|-0--0-2-3---0--0--0-2-3---0--|-0--0-2-3---0--0--0-2-3---0--|




  E  S S S S E  E  S S S S E    E  S S E  E  E  E  E  E
|-----------------------------|--------------------------|
|-----------------------------|--------------------------|
|-----------------------------|----5/7----------8--------|
|-5--5-7-8---0--5--5-7-8---3--|-2------2--2--3-----3--2--|




  E  S S S S E  E  S S S S E    E  S S S S E  E  S S S S E
|-----------------------------|-----------------------------|
|-----------------------------|-----------------------------|
|-----------------------------|-----------------------------|
|-0--0-2-3---0--0--0-2-3---0--|-0--0-2-3---0--0--0-2-3---0--|



                                               end Fig.3
  E  S S S S E  E  S S S S E    E  E  E  E  E  E  E  E
|-----------------------------|-------------------------||
|-----------------------------|-------------------------||
|-----------------------------|----7--------------------||
|-5--5-7-8---0--5--5-7-8---3--|-2-----2--2--3--3--3--2--||



  Riff D
  Q    Q    Q+E   E    E  E  Q    E  E  E  E    Q+E   E  Q+E   E
|--------------------|------------------------|-------------------|
|--------------------|------------------------|-------------------|
|--------------------|------------------------|-------------------|
|-0----0----0-----0--|-0--0--7----3--0--2--3--|-5-----5--5-----3--|




  Q+E   Q    E  E  E    Q+E   E  Q+E   E    E  E  Q    E  E  E  E
|---------------------|-------------------|------------------------|
|---------------------|-------------------|------------------------|
|---------------------|-------------------|------------------------|
|-2-----3----3--3--2--|-0-----0--0-----0--|-0--0--7----3--0--2--3--|




  Q+E   E  Q    E  E    Q+E   E  Q    Q      E  E  E  E  Q+E   E
|---------------------|--------------------|----------------------|
|---------------------|--------------------|----------------------|
|---------------------|-------4------------|----------------------|
|-5-----5--5----3s/5--|-7--------7----5s\--|-0--0--5s/7--0-----0--|



                                                                end Riff D
  E  E  E  E  Q    E  E    Q    E  E  E  E  E  E    Q    E  E  Q    E  E
|------------------------|------------------------|-----------------------||
|------------------------|------------------------|-----------------------||
|------------------------|------------------------|------------4----2s/4--||
|-0--0--0--0--0----5s/7--|-8----8--8--8--8--8--7--|-7----7--7-------------||



  Fig.4
  E  E  E  E  E  E  E  E    E  E  E  E  E  E  Q      H+Q    E  E
|-------------------------|------------------------|--------------|
|-------------------------|------------------------|--------------|
|-5-----------7-----------|-8----------------------|--------------|
|----7--5--7-----7--5--7--|----5--7s/8s\7--5--3----|-7------5s/7--|



       end Fig.4
  H      H
|---------------||
|---------------||
|---------------||
|-3------2------||



  Riff E
  E  S S S E+SE  S S S E+S  E  S S S E+SE  S S S E+S
|-------------------------|-------------------------|
|-------------------------|-------------------------|
|-------------------------|-------------------------|
|-0--0-2-3----0--0-2-3----|-0--0-2-3----0--0-2-3----|



                                          end Riff E
  E  S S S E+SE  S S S E+S  E  S S S E+SE  E  E  E
|-------------------------|-------------------------|| Repeat 2X
|-------------------------|-------------------------||
|-------------------------|-------------------------||
|-5--5/8\5----5--5/8\5----|-2--2/7\2----3--0--3--2--||



  Fig.5
  S S E  E  E  E  E  Q      S S E  E  E  E  E  Q
|-------------------------|-------------------------|
|-------------------------|-------------------------|
|-------------------------|-------------------------|
|-0-0-0--0--8--7--5--3----|-0-0-0--0--8--7--5--2----|




  S S E  E  E  E  E  Q      S S E  E  E  E  E  Q
|-------------------------|-------------------------|
|-------------------------|-------------------------|
|-------------------------|-------------------------|
|-0-0-0--0--8--7--5--3----|-0-0-0--0--5--7--5--2----|




  S S E  E  E  E  E  Q      S S E  E  E  E  E  Q
|-------------------------|-------------------------|
|-------------------------|-------------------------|
|-------------------------|-------------------------|
|-0-0-0--0--8--7--5--3----|-0-0-0--0--8--7--5--2----|



                                            end Fig.5
  S S E  E  E  E  E  Q      S S E  E  E  E  E  E  E
|-------------------------|--------------------------||
|-------------------------|--------------------------||
|-------------------------|--------------------8s/0--||
|-0-0-0--0--8--7--5--3----|-0-0-0--0--5--7--5--------||



  Fig.6
  E  E  E  E  E  E  E  E    E  E  E  E  E  E  E  E
|-------------------------|-------------------------|
|-------------------------|-------------------------|
|-------------------------|-------------------8s/0--|
|-0--8--7--5--8--7--5s/7--|-0--8--7--5--8--7--------|




  E  E  E  E  E  E  E  E    E  E  E  E  E  E  E  E
|-------------------------|-------------------------|
|-------------------------|-------------------------|
|-------------------------|-------------------------|
|-0--8--7--5--8--7--5s/7--|-0--8--7--5--3--0--3--2--|



                                           end Fig.6
  E  E  E  E  E  E  E  E    E  E  E  E  E  E  E  E
|-------------------------|-------------------------||
|-------------------------|-------------------------||
|-------------------------|-------------------------||
|-0--2--0-----2--0-----2--|-0--2--0--2-----0--3--2--||




  rest
|--------||
|--------||
|--------||
|--------||




  Riff F
  Q    Q    Q+E   E   E   E  Q    E  E  E  E    Q+E   E  Q+E   E
|--------------------|------------------------|-------------------|
|--------------------|------------------------|-------------------|
|--------------------|------------------------|-------------------|
|-0----0----0-----0--|-0--0--7----3--0--2--3--|-5-----5--5-----3--|




  Q+E   Q    E  E  E    Q    Q    Q+E   E    E  E  Q    E  E  E  E
|---------------------|--------------------|------------------------|
|---------------------|--------------------|------------------------|
|---------------------|--------------------|------------------------|
|-2-----3----3--3--2--|-0----0----0-----0--|-0--0--7----3--0--2--3--|




  Q+E   E  Q    E  E    Q+E   E  Q    Q      E  E  E  E  Q+E   E
|---------------------|--------------------|----------------------|
|---------------------|--------------------|----------------------|
|---------------------|-------4------------|----------------------|
|-5-----5--5----3s/5--|-7--------7----5s\--|-0--0--5s/7--0-----0--|



                                                                end Riff F
  E  E  E  E  Q    E  E    Q    E  E  E  E  E  E
|------------------------|------------------------|-----------------------||
|------------------------|------------------------|-----------------------||
|------------------------|------------------------|------------4----2s/4--||
|-0--0--0--0--0----5s/7--|-8----8--8--8--8--8--7--|-7----7--7-------------||



  Fig.7
  E  E  E  E  E  E  E  E    E  E  E  E  E  E  Q      H+Q    E  E
|-------------------------|------------------------|--------------|
|-------------------------|------------------------|--------------|
|-5-----------7-----------|-8----------------------|--------------|
|----7--5--7-----7--5--7--|----5--7s/8s\7--5--3----|-7------5s/7--|



               end Fig.7
  Q    E  E  Q    E  E
|-----------------------||
|-----------------------||
|-----------------------||
|-3----3--3--2----2--2--||



  Fig.8
  Q    E  E  Q+E   E holdE   E  E  E  E  Q    E    Q+E   E  Q+E   E
|---------------------|--------------------------|-------------------|
|---------------------|--------------------------|-------------------|
|---------------------|--------------------------|----------8-----5--|
|-0----0--0--0-----0--|-(0)--0--3--3--3--7----7--|-8-----8-----------|




  E  E  E  E  E  E  Q      E  E  E  E  Q+E   E    E  E  E  E  Q    E  E
|------------------------|----------------------|------------------------|
|------------------------|----------------------|------------------------|
|-4--5--8s/7-------------|----------------------|------------------------|
|-------------7--5--3----|-0--0-----0--0-----0--|-0--0--5s/7s\3----3--3--|




  E  E  E  E  Q+E   E    E  E  E  E  E  E  E  E    E  E  E  E  Q+E   E
|----------------------|-------------------------|----------------------|
|----------------------|-------------------------|----------------------|
|----------------------|----------------4--8s\7--|----------------------|
|-8--8-----8--8-----5--|-7--7-----7--7-----------|-0--0-----0--0-----0--|




  E  E  Q    E  E  Q      E  Q    E  Q+E   E    E  Q    E  E  E    Q
|-----------------------|---------------------|-----------------------|
|-----------------------|---------------------|-----------------------|
|-----------------------|---------------------|---------------4----4--|
|-0--0--8----7s\5--3----|-5--5----5--0-----5--|-7--7----7--7----------|




  E  E  E  E  Q+E   E    E  E  Q    E  E  Q      E  E  E  E  Q    E  E
|----------------------|-----------------------|------------------------|
|----------------------|-----------------------|------------------------|
|-5--------5--7-----7--|-8---------------------|------------------------|
|----7--5--------------|----7--5----5--7--8----|-7--7-----8--8----5--8--|



                   end Fig.8
  E  E  E  E  Q    E  E  E
|---------------------------||
|---------------------------||
|---------------------------||
|-7-----7-----7----0--3--2--||



 outro
  S S E  E  E  E  E  Q      S S E  E  E  E  E  Q      E H+Q+E
|-------------------------|-------------------------|---------||
|-------------------------|-------------------------|---------||
|-------------------------|-------------------------|---------||
|-0-0-0--0--8--7--5--3----|-0-0-0--0--8--7--5--2----|-0-------||



W  - whole note
H  - Half note
Q  - Quarter note
E  - Eight note
S  - Sixteenth note
s/ - slide up
s\ - slide down



Tabbed by INFERNUS666
comments
We did not receive enough feedback on this tab! Please rate:
1 2 3 4 5
I want to post or [tab]
guest
You may want to rate the tab now too:
select rating
Please do not post tabs as comments. Select "correction" instead!