Oops, an error
Loading. Please wait.

Ryoujoku No Ame Tab

1,675 views 3 this week
no commentswrite comment
1 2 3 4 5
please rate
Autoscroll
+/-
esc
set tempo
stop
Contributor
Difficulty
intermediate
WARNING: You are trying to view
                                    content from Ultimate-Guitar.com
                                    in an unauthorized application,
                                    which is prohibited.

                                    Please use an official Ultimate
                                    Guitar Tabs application for iPhone,
                                    iPad or Android to access legitimate
                                    chords, guitar, bass, and drum tabs
                                    from Ultimate-Guitar.com database.

                                    Type "ultimate guitar tabs" in Apple
                                    App Store's or Android Market's
                                    search to find the application.
Welcome, here you have the tab for "Ryoujoku No Ame" by Dir En Grey.
You will find both Kaoru and Dies part, I chosed to part them though.
So if you want Dies part, you have to go further down in the tab.

Allright, lets start out with Kaoru:

Tuning: Drop C# (Half-step down then Drop the Db string).

      W                    E   E   E   E   E  E  E  E   
D#||-------------------|-------------------------------|
A#||-------------------|-------------------------------|
F#||-------------------|--10--10--10---9---9--7--7-----|
C#||-------------------|--12--12--12--10--10--8--8--7--|
G#||-------------------|----------------------------8--|
C#||-------------------|-------------------------------|


  E  E  E  E  E   E  E  E     E   E  E  E  E  E  E  E   
---------------------------|---------------------------|
---------------------------|---------------------------|
--7--5--5--5--5s--7--7--5--|--5s--7--7--7--7--7--------|
--7--5--5--5--5s--7--7--5--|--5s--7--7--7--7--8--7-----|
---------------------------|------------------------8--|
---------------------------|---------------------------|


  E  E  E  E  E    E   E   E      E   E   E   E   E   E  E   E   
------------------------------|---------------------------------|
------------------------------|---------------------------------|
--6--6--6--6--L--/10--10--10--|--10--10--10---9-----------------|
--7--7--7--7--L--/11--11--11--|--12--12--12--10--10s--8--8s--7--|
------------------------------|---------------------------------|
------------------------------|---------------------------------|


   E    E    E    E    E     E    E    E    
-------------------------------------------|
-------------------------------------------|
--(7)--(5)--(5)--(5)--(5)s--(7)--(7)--(5)--|
---7----5----5----5----5s----7----7----5---|
-------------------------------------------|
-------------------------------------------|


                                                                 W      
   E     E    E    E    E    E    E   E     E  E  E    E   E  E  Q      
-----------------------------------------|-----------------------------|
-----------------------------------------|-----------------------------|
--(5)s--(7)--(7)--(7)--(7)--(7)--(7)-----|--6--6--L--/10--10--9--9~----|
---5s----7----7----7----7----8----7---L--|--7--7--L---/7---7-----------|
-----------------------------------------|-----------------------------|
-----------------------------------------|-----------------------------|


     PM   PM                        PM   PM                    
  E  S  S S  S E  E  E  E  E     E  S  S S  S E   E  E  E  E   
------------------------------|-------------------------------|
------------------------------|-------------------------------|
------------------------------|-------------------------------|
------------------------------|-------------------------------|
--0------------0--0--L--0-----|--0----------------0--L--0-----|
--0--0----0----0--0--L--0-----|--0--0----0----7b--0--L--0-----|


     PM   PM                        PM   PM         PM   PM         
  E  S  S S  S E  E  E  E  E     E  S  S S  S E  E  S  S S  S  E    
------------------------------|------------------------------------|
------------------------------|------------------------------------|
------------------------------|------------------------------------|
------------------------------|------------------------------------|
--0------------0--0--L--0-----|--0------------0--0------------12S--|
--0--0----0----0--0--L--0-----|--0--0----0----0--0--0----0---------|


   E  Q     H        E      E  Q     E   E  E   E  E   
------------------------|-----------------------------|
-----------10--------L--|-----------------------------|
-----------10--------L--|--10-------12--12-----10-----|
------------------------|--11-------11--11-----11-----|
--13--------------------|-----------------------------|
------------------------|-----------------------------|


     PM   PM                        PM   PM                         
  E  S  S S  S E  E  E  E  E     E  S  S S  S  E   E   E   E   E    
------------------------------|------------------------------------|
------------------------------|------------------------------------|
------------------------------|------------------------------------|
------------------------------|------------------------------------|
--0------------0--0--L--0-----|--0----------------------------12S--|
--0--0----0----0--0--L--0-----|--0--0----0----10s--7S--5s--3-------|


   E  Q     H        E      E  Q     E   E  E   E  E   
------------------------|-----------------------------|
-----------10--------L--|-----------------------------|
-----------10--------L--|--10-------12--12-----10-----|
------------------------|--11-------11--11-----11-----|
--13--------------------|-----------------------------|
------------------------|-----------------------------|


  PM PM PM PM                    PM PM PM PM                 
  S  S  E  E  Q.       Q         S  S  E  E  Q.       Q      
------------------------------|-----------------------------|
------------------------------|-----------------------------|
------------------------------|-----------------------------|
------------------------------|-----------------------------|
-----------------------6br----|--------------6br------------|
--0--0--0--0--8br-------------|--0--0--0--0-----------3~----|


  PM PM PM PM                    PM PM PM PM                 
  S  S  E  E  Q.       Q         S  S  E  E  Q.       Q      
------------------------------|-----------------------------|
------------------------------|-----------------------------|
------------------------------|-----------------------------|
------------------------------|-----------------------------|
-----------------------6br----|--------------6br------------|
--0--0--0--0--8br-------------|--0--0--0--0-----------3~----|

::  (No guitar here for 4 bars)


  W                   W                   H        Q.     E     
-------------------|-------------------|-----------------------|
-------------------|-------------------|------------------8s~--|
-------------------|-------------------|-----------------------|
-------------------|-------------------|-----------------------|
-------------------|-------------------|-----------------------|
-------------------|-------------------|-----------------------|


                 PM                                     
   Q.      Q     E  Q         E  E  E  E  E  E  Q       
---------------------------|---------------------------|
--10~------6~--------------|---------------------------|
-----------------x---------|---------------------------|
-----------------x--7br----|--x--x--x--7--x--x--7br----|
---------------------------|---------------------------|
---------------------------|---------------------------|


  E  E  E  E  E  E  Q         E  E  E  E  E  E  Q       
---------------------------|---------------------------|
---------------------------|---------------------------|
---------------------------|---------------------------|
--x--x--x--7--x--x--7br----|--x--x--x--7--x--x--7br----|
---------------------------|---------------------------|
---------------------------|---------------------------|


  E  E  E  E  E  E  Q         E  E  E  E  E  E  Q       
---------------------------|---------------------------|
---------------------------|---------------------------|
---------------------------|---------------------------|
--x--x--x--7--x--x--7br----|--x--x--x--7--x--x--7br----|
---------------------------|---------------------------|
---------------------------|---------------------------|


  E  E  E  E  E  E  Q         E  E  E  E  E  E  Q       
---------------------------|---------------------------|
---------------------------|---------------------------|
---------------------------|---------------------------|
--x--x--x--7--x--x--7br----|--x--x--x--7--x--x--7br----|
---------------------------|---------------------------|
---------------------------|---------------------------|


  E  E  E  E  E  E  Q         H        Q    E  E     Q    Q    E  E  E  E   
---------------------------|-----------5----5--5--|--5----5----5--5--5--5--|
---------------------------|-----------6----6--6--|--6----6----6--6--6--6--|
---------------------------|-----------7----7--7--|--7----7----7--7--7--7--|
--x--x--x--7--x--x--7br----|--0--------7----7--7--|--7----7----7--7--7--7--|
---------------------------|--0-------------------|------------------------|
---------------------------|--0-------------------|------------------------|


  Q    E  Q    E  E  E     Q    Q    Q    Q       H        Q    E  E   
--5----5--5----5--5--5--|--3----3--------------|-----------5----5--5--|
--6----6--6----6--6--6--|--5----5----6----6----|-----------6----6--6--|
--7----7--7----7--7--7--|--5----5----6----6----|-----------7----7--7--|
--7----7--7----7--7--7--|--5----5----5----5----|--0--------7----7--7--|
------------------------|------------4----4----|--0-------------------|
------------------------|----------------------|--0-------------------|


  Q    Q    E  E  E  E     Q    E  Q    E  E  E     Q    Q    Q    Q     
--5----5----5--5--5--5--|--5----5--5----5--5--5--|--3----3--------------|
--6----6----6--6--6--6--|--6----6--6----6--6--6--|--5----5----6----6----|
--7----7----7--7--7--7--|--7----7--7----7--7--7--|--5----5----6----6----|
--7----7----7--7--7--7--|--7----7--7----7--7--7--|--5----5----5----5----|
------------------------|------------------------|------------4----4----|
------------------------|------------------------|----------------------|


  H        Q    E  E     Q    Q    E  E  E  E     Q    E  Q    E  E  E   
-----------5----5--5--|--5----5----5--5--5--5--|--5----5--5----5--5--5--|
-----------6----6--6--|--6----6----6--6--6--6--|--6----6--6----6--6--6--|
-----------7----7--7--|--7----7----7--7--7--7--|--7----7--7----7--7--7--|
--0--------7----7--7--|--7----7----7--7--7--7--|--7----7--7----7--7--7--|
--0-------------------|------------------------|------------------------|
--0-------------------|------------------------|------------------------|


  Q    Q    Q    Q       E    Q     E   E    Q     E   
--3----3--------------|-------------------------------|
--5----5----6----6----|-------------------------------|
--5----5----6----6----|-------------------------------|
--5----5----5----5----|-------------------------------|
------------4----4----|--8S--12-----L--10S--13-----L--|
----------------------|-------------------------------|


  E    Q    E   E   E   E    E      W                    H         H         
--------------------------------|--------------------|----------------------|
--------------------------------|--------------------|----------------------|
--------------------------------|--12----------------|--10---------9--------|
--7S--10----7S--8--12--12s--11--|--11----------------|--10--------10--------|
--------------------------------|--10----------------|----------------------|
--------------------------------|--------------------|----------------------|


  ^                                                        ^            
  H        H            H        E  E   E   E     E.  E.   H        E   
---------------------|-------------------------|-----------------------|
---------------------|-------------------------|----------10--------L--|
--7--------L~--------|-------------------------|----------10--------L--|
--7--------L~--------|--------------3s--8s--7--|--7---8---10--------L--|
--8--------L~--------|-------------------------|-----------------------|
---------------------|-------------------------|-----------------------|

---------------------------|------------------------|
--8------------------------|------------------------|
--6--------10--------7s-9s-|--7---------------------|
--7-------------11---------|---------------7s-8s-7--|
---------------------------|------------------------|
---------------------------|------------------------|

--------------------------|
--------------------------|
--7-------7s-9--6---7-----|
-----------------------7--|
--------------------------|
--------------------------|
                                                                       

                                                     PM        
  E  S  S  E  S   S  E   S   S   E  E     H        E  E  Q      
---------------------------------------|-----------------------|
------------------------10s-11s-10--8--|--5--------------------|
-----6s-7s-6--9s-10s-9-----------------|-----------------------|
--8------------------------------------|-----------7-----------|
---------------------------------------|--------------7--------|
---------------------------------------|-----------------2b----|


  PM PM PM PM                    PM PM PM PM                 
  S  S  E  E  Q.       Q         S  S  E  E  Q.       Q      
------------------------------|-----------------------------|
------------------------------|-----------------------------|
------------------------------|-----------------------------|
------------------------------|-----------------------------|
-----------------------6br----|--------------6br------------|
--0--0--0--0--8br-------------|--0--0--0--0-----------3~----|


  PM PM PM PM                    PM PM PM PM                 
  S  S  E  E  Q.       Q         S  S  E  E  Q.       Q      
------------------------------|-----------------------------|
------------------------------|-----------------------------|
------------------------------|-----------------------------|
------------------------------|-----------------------------|
-----------------------6br----|--------------6br------------|
--0--0--0--0--8br-------------|--0--0--0--0-----------3~----|


  PM PM PM PM                    PM PM PM PM                 
  S  S  E  E  Q.       Q         S  S  E  E  Q.       Q      
------------------------------|-----------------------------|
------------------------------|-----------------------------|
------------------------------|-----------------------------|
------------------------------|-----------------------------|
-----------------------6br----|--------------6br------------|
--0--0--0--0--8br-------------|--0--0--0--0-----------3~----|


  PM PM PM PM                    PM PM PM PM                 
  S  S  E  E  Q.       Q         S  S  E  E  Q.       E  E   
------------------------------|-----------------------------|
------------------------------|-----------------------------|
------------------------------|-----------------------------|
------------------------------|-----------------------------|
-----------------------6br----|--------------6br------8-----|
--0--0--0--0--8br-------------|--0--0--0--0--------------3--|


  PM PM PM    PM PM    PM    PM PM PM    PM PM    PM  
  E  E  E  E  E  E  E  E     E  E  E  E  E  E  E  E   
--------------------------|--------------------------|
--------------------------|--------------------------|
--------------------------|--------------------------|
--------------------3-----|--------------------3-----|
-----0-----1--0--------0--|-----0-----1--0--------0--|
--0-----0--------0--------|--0-----0--------0--------|


  PM PM PM    PM PM    PM    PM PM PM    PM PM PM PM  
  E  E  E  E  E  E  E  E     E  E  E  E  E  E  E  E   
--------------------------|--------------------------|
--------------------------|--------------------------|
--------------------------|--------------------------|
--------------------3-----|--------------------------|
-----0-----1--0--------0--|-----0-----1--0-----------|
--0-----0--------0--------|--0-----0--------0--3--2--|


  PM PM PM     PM PM     PM    PM PM PM     PM PM PM PM  
  E  E  E  E   E  E  E   E     E  E  E  E   E  E  E  E   
----------------------------|---------------------------|
----------------------------|---------------------------|
----------------------------|---------------------------|
----------------------------|---------------------------|
-----------1~--------1~-----|-----------1~--------------|
--0--2--0------2--0------2--|--0--2--0------2--0--3--2--|


  PM PM PM     PM PM     PM    PM PM PM     PM PM PM PM                      
  E  E  E  E   E  E  E   E     E  E  E  E   E  E  E  E     W                 
----------------------------|---------------------------|-------------------|
----------------------------|---------------------------|-------------------|
----------------------------|---------------------------|-------------------|
----------------------------|---------------------------|-------------------|
-----------1~--------1~-----|-----------1~--------------|-------------------|
--0--2--0------2--0------2--|--0--2--0------2--0--3--2--|-------------------|


  H        Q    E  E     Q    Q    E  E  E  E     Q    E  Q    E  E  E   
-----------5----5--5--|--5----5----5--5--5--5--|--5----5--5----5--5--5--|
-----------6----6--6--|--6----6----6--6--6--6--|--6----6--6----6--6--6--|
-----------7----7--7--|--7----7----7--7--7--7--|--7----7--7----7--7--7--|
--0--------7----7--7--|--7----7----7--7--7--7--|--7----7--7----7--7--7--|
--0-------------------|------------------------|------------------------|
--0-------------------|------------------------|------------------------|


  Q    Q    Q    Q       H        Q    E  E     Q    Q    E  E  E  E   
--3----3--------------|-----------5----5--5--|--5----5----5--5--5--5--|
--5----5----6----6----|-----------6----6--6--|--6----6----6--6--6--6--|
--5----5----6----6----|-----------7----7--7--|--7----7----7--7--7--7--|
--5----5----5----5----|--0--------7----7--7--|--7----7----7--7--7--7--|
------------4----4----|--0-------------------|------------------------|
----------------------|--0-------------------|------------------------|


  Q    E  Q    E  E  E     Q    Q    Q    Q       H        Q    E  E   
--5----5--5----5--5--5--|--3----3--------------|-----------5----5--5--|
--6----6--6----6--6--6--|--5----5----6----6----|-----------6----6--6--|
--7----7--7----7--7--7--|--5----5----6----6----|-----------7----7--7--|
--7----7--7----7--7--7--|--5----5----5----5----|--0--------7----7--7--|
------------------------|------------4----4----|--0-------------------|
------------------------|----------------------|--0-------------------|


  Q    Q    E  E  E  E     Q    E  Q    E  E  E     Q    Q    Q    Q     
--5----5----5--5--5--5--|--5----5--5----5--5--5--|--3----3--------------|
--6----6----6--6--6--6--|--6----6--6----6--6--6--|--5----5----6----6----|
--7----7----7--7--7--7--|--7----7--7----7--7--7--|--5----5----6----6----|
--7----7----7--7--7--7--|--7----7--7----7--7--7--|--5----5----5----5----|
------------------------|------------------------|------------4----4----|
------------------------|------------------------|----------------------|


  E    Q     E   E    Q     E     E    Q    E   E   E   E    E   
-------------------------------|--------------------------------|
-------------------------------|--------------------------------|
-------------------------------|--------------------------------|
-------------------------------|--7S--10----7S--8--12--12s--11--|
--8S--12-----L--10S--13-----L--|--------------------------------|
-------------------------------|--------------------------------|


   W                    H         H            E   E   E   E   E  E  E  E   
--------------------|----------------------|-------------------------------|
--------------------|----------------------|-------------------------------|
--12----------------|--10---------9--------|--10--10--10---9---9--7--7-----|
--11----------------|--10--------10--------|--12--12--12--10--10--8--8--7--|
--10----------------|----------------------|----------------------------8--|
--------------------|----------------------|-------------------------------|


  E  E  E  E  E   E  E  E     E   E  E  E  E  E  E  E   
---------------------------|---------------------------|
---------------------------|---------------------------|
-----5--5--5--5s--7--7--5--|--5s--7--7--7--7--7--------|
--7--5--5--5--5s--7--7--5--|--5s--7--7--7--7--8--7-----|
--8------------------------|------------------------8--|
---------------------------|---------------------------|


  E  E  E  E  E    E   E   E      E   E  E   E   E  E  E  E   
------------------------------|------------------------------|
------------------------------|------------------------------|
--6--6--6--6--L--/10--10--10--|--10--10------9---9--7--7-----|
--7--7--7--7--L--/11--11--11--|--12--12-----10--10--8--8--7--|
------------------------------|---------------------------8--|
------------------------------|------------------------------|


  E  E  E  E  E   E  E  E     E   E  E  E  E  E  E  E   
---------------------------|---------------------------|
---------------------------|---------------------------|
-----5--5--5--5s--7--7--5--|--5s--7--7--7--7--7--------|
--7--5--5--5--5s--7--7--5--|--5s--7--7--7--7--8--7-----|
--8------------------------|------------------------8--|
---------------------------|---------------------------|


  E  E  E  E  E    E   E   E      E   E   E   E   E  E  E  E   
------------------------------|-------------------------------|
------------------------------|-------------------------------|
--6--6--6--6--L--/10--10--10--|--10--10--10---9---9--7--7--7--|
--7--7--7--7--L--/11--11--11--|--12--12--12--10--10--8--8--7--|
------------------------------|-------------------------------|
------------------------------|-------------------------------|


  E  E  E  E  E   E  E  E     E   E  E  E  E  E  E  E   
---------------------------|---------------------------|
---------------------------|---------------------------|
--7--5--5--5--5s--7--7--5--|--5s--7--7--7--7--7--------|
--7--5--5--5--5s--7--7--5--|--5s--7--7--7--7--8--7-----|
---------------------------|------------------------8--|
---------------------------|---------------------------|


  E  E  E  E  E    E   E   E      E   E   E   E   E  E  E  E   
------------------------------|-------------------------------|
------------------------------|-------------------------------|
--6--6--6--6--L--/10--10--10--|--10--10--10---9---9--7--7-----|
--7--7--7--7--L--/11--11--11--|--12--12--12--10--10--8--8--7--|
------------------------------|----------------------------8--|
------------------------------|-------------------------------|


  E  E  E  E  E   E  E  E     E   E  E  E  E  E  E  E   
---------------------------|---------------------------|
---------------------------|---------------------------|
-----5--5--5--5s--7--7--5--|--5s--7--7--7--7--7--------|
--7--5--5--5--5s--7--7--5--|--5s--7--7--7--7--8--7-----|
--8------------------------|------------------------8--|
---------------------------|---------------------------|


  PM   PM                      PM PM PM PM                  
  E  S E  S Q.       Q         S  S  E  E  Q.       Q       
----------------------------|------------------------------|
----------------------------|------------------------------|
----------------------------|------------------------------|
----------------------------|------------------------------|
----------------------------|-----------------------6br----|
--7----7----7br------2br----|--0--0--0--0--8br-------------|


  PM PM PM PM                                        
  S  S  E  E  Q.       E  E     E  H.           E    
-----------------------------|---------------------||
-----------------------------|---------------------||
-----------------------------|---------------------||
-----------------------------|---------------------||
--------------6br------------|--0------------------||
--0--0--0--0-----------5--3--|--0------------------||

--------------------------------------------------------
Lets go for Die's part now.

      W                    E   E   E   E   E    E   E   E   
D#||-------------------|--10--10--10-----------------------|
A#||-------------------|--10--10--10--13--13s--11--11--10--|
F#||-------------------|--------------12--12s--10--10--10--|
C#||-------------------|-----------------------------------|
G#||-------------------|-----------------------------------|
C#||-------------------|-----------------------------------|

   E  E  E  E  E   E   E  E     E    E   E   E   E   E   E   E   
-----------------------------|----------------------------------|
--10--8--8--8--8--10--10--8--|--8-------10--10--10--11--10--10--|
--10--9--9--9--9--10--10--9--|--9s--10--10--10--10--10--10--10--|
-----------------------------|----------------------------------|
-----------------------------|----------------------------------|
-----------------------------|----------------------------------|

   E   E   E   E   E   E   E   E      E   E   E   E   E    E   E   E   
-----------------------9---9---9--|--10--10--10-----------------------|
--10--10--10--10--10--10--10--10--|--10--10--10--13--13s--11--11--10--|
--10--10--10--10--10--------------|--------------12--12s--10--10--10--|
----------------------------------|-----------------------------------|
----------------------------------|-----------------------------------|
----------------------------------|-----------------------------------|

   E  E  E  E  E   E   E  E     E    E   E   E   E   E   E    E   
-----------------------------|-------------------------------/9--|
--10--8--8--8--8--10--10--8--|--8-------10--10--10--10--10--/10--|
--10--9--9--9--9--10--10--9--|--9s--10--10--10--10--10--10-------|
-----------------------------|-----------------------------------|
-----------------------------|-----------------------------------|
-----------------------------|-----------------------------------|

                             SH                              
  E  E   E   E     E   E     Q        Q    E  E  Q    E  E   
--9---------10br---L------<>16b----|------------------------|
-----8--10------------10-----------|------------------------|
-----------------------------------|------------------------|
-----------------------------------|--0----0-----0----0-----|
-----------------------------------|--0----0-----0----0-----|
-----------------------------------|--0----0-----0----0-----|

  Q    E  E  Q    E  E     Q    E  E  Q    E  E     Q    E  E  Q    E  E   
------------------------|------------------------|------------------------|
------------------------|------------------------|------------------------|
------------------------|------------------------|------------------------|
--0----0-----0----0-----|--0----0-----0----0-----|--0----0-----0----0-----|
--0----0-----0----0-----|--0----0-----0----0-----|--0----0-----0----0-----|
--0----0-----0----0-----|--0----0-----0----0-----|--0----0-----0----0-----|

  Q    E  E  Q    E  E     Q    E  E  Q    E  E     Q    E  E  Q    E  E   
------------------------|------------------------|------------------------|
------------------------|------------------------|------------------------|
------------------------|------------------------|------------------------|
--8----8-----8----8-----|--5----5-----7----7-----|--0----0-----0----0-----|
--8----8-----8----8-----|--7----7-----8----8-----|--0----0-----0----0-----|
--5----5-----5----5-----|--5----5-----7----7-----|--0----0-----0----0-----|

  Q    E  E  Q    E  E     Q    E  E  Q    E  E     Q    E  E  Q    E  E   
------------------------|------------------------|------------------------|
------------------------|------------------------|------------------------|
------------------------|------------------------|------------------------|
--0----0-----0----0-----|--8----8-----8----8-----|--5----5-----7----7-----|
--0----0-----0----0-----|--8----8-----8----8-----|--7----7-----8----8-----|
--0----0-----0----0-----|--5----5-----5----5-----|--5----5-----7----7-----|

  PM PM PM PM                      PM PM PM PM                  
  S  S  E  E  Q      S S Q         S  S  E  E  Q      S S Q     
--------------------------------|------------------------------|
--------------------------------|------------------------------|
--------------------------------|------------------------------|
-------------------------5br----|--------------5br--------3----|
--------------6br---------------|-------------------------3----|
--0--0--0--0---------7-L--------|--0--0--0--0---------7-L-3----|

  PM PM PM PM                      PM PM PM PM                  
  S  S  E  E  Q      S S Q         S  S  E  E  Q      S S Q     
--------------------------------|------------------------------|
--------------------------------|------------------------------|
--------------------------------|------------------------------|
-------------------------5br----|--------------5br--------3----|
--------------6br---------------|-------------------------3----|
--0--0--0--0---------7-L--------|--0--0--0--0---------7-L-3----|

::  (No guitar here for 4 bars)

  Q    E  E  Q    E  E     Q    E  E  Q    E  E     Q    E  E  Q    E  E   
------------------------|------------------------|------------------------|
------------------------|------------------------|------------------------|
------------------------|------------------------|------------------------|
--0----0-----0----0-----|--0----0-----0----0-----|--8----8-----8----8-----|
--0----0-----0----0-----|--0----0-----0----0-----|--8----8-----8----8-----|
--0----0-----0----0-----|--0----0-----0----0-----|--5----5-----5----5-----|

  Q    E  E  Q    E  E     Q    E  E  Q    E  E     Q    E  E  Q    E  E   
------------------------|------------------------|------------------------|
------------------------|------------------------|------------------------|
------------------------|------------------------|------------------------|
--5----5-----2----2-----|--0----0-----0----0-----|--0----0-----0----0-----|
--7----7-----3----3-----|--0----0-----0----0-----|--0----0-----0----0-----|
--5----5-----2----2-----|--0----0-----0----0-----|--0----0-----0----0-----|

  Q    E  E  Q    E  E     Q    E  E  E PM S  S Q        H      Q    E  E   
------------------------|----------------------------|----------------------|
------------------------|----------------------------|----------------------|
------------------------|----------------------------|----------------------|
--8----8-----8----8-----|--5----5-----2--------------|--0--------7----L--7--|
--8----8-----8----8-----|--7----7-----3-------6br----|--0--------5----L--5--|
--5----5-----5----5-----|--5----5-----2--2--L--------|--0--------7----L--7--|

  E  E  E  E  E  E  E  E     E  E  E  E  E  E  E  E     H        H         
--------------------------|--------------------------|--------------------|
--------------------------|--------------------------|--------------------|
--------------------------|--------------------------|--------------------|
--7--7--7--7--7--7--7--7--|--8--L--8--8--8--8--8--L--|--5--------2--------|
--5--5--5--5--5--5--5--5--|--8--L--8--8--8--8--8--L--|--7--------3--------|
--7--7--7--7--7--7--7--7--|--5--L--5--5--5--5--5--L--|--5--------2--------|

  H        Q    E  E     E  E  E  E  E  E  E  E     E  E  E  E  E  E  E  E   
----------------------|--------------------------|--------------------------|
----------------------|--------------------------|--------------------------|
----------------------|--------------------------|--------------------------|
--0--------7----L--7--|--7--7--7--7--7--7--7--7--|--8--L--8--8--8--8--8--8--|
--0--------5----L--5--|--5--5--5--5--5--5--5--5--|--8--L--8--8--8--8--8--8--|
--0--------7----L--7--|--7--7--7--7--7--7--7--7--|--5--L--5--5--5--5--5--5--|

   H        H           H        Q    E  E     E  E  E  E  E  E  E  E   
---------------------|----------------------|--------------------------|
---------------------|----------------------|--------------------------|
---------------------|----------------------|--------------------------|
--10--------2--------|--0--------7----L--7--|--7--7--7--7--7--7--7--7--|
--10--------3--------|--0--------5----L--5--|--5--5--5--5--5--5--5--5--|
--10--------2--------|--0--------7----L--7--|--7--7--7--7--7--7--7--7--|


  E  E  E  E  E  E  E  E     H        H           E  Q    E  E   Q    E   
--------------------------|--------------------|-------------------------|
--------------------------|--------------------|-------------------------|
--------------------------|--------------------|-------------------------|
--7--L--7--7--7--7--7--7--|--2--------5--------|-------------------------|
--8--L--8--8--8--8--8--8--|--3--------7--------|--5--8----5--7--10----7--|
--8--L--8--8--8--8--8--8--|--2--------5--------|-------------------------|


  E   Q    E   E   E   E    E      W                   H        H         
-------------------------------|--------------------|--------------------|
-------------------------------|--------------------|--------------------|
-------------------------------|--------------------|--------------------|
-------------------------------|--11----------------|--3--------2--------|
--8--12----8--10--13--10s--12--|--12----------------|--3--------3--------|
-------------------------------|--------------------|--------------------|


  S S S S E  E  Q.     S S    S S S S E  E  Q.     S S    W                 
---------------------------|---------------------------|-------------------|
--6-6-6-6-6--5---------6-6-|--L-6-x-x-6--5-------------|-------------------|
--7-7-7-7-7--5---------7-7-|----7-x-x-7--5---------x-x-|--7----------------|
---------------------------|-----------------------x-x-|--8----------------|
---------------------------|---------------------------|-------------------|
---------------------------|---------------------------|-------------------|


  ^                                                                       
  W                   S S S S E  E  Q.     S S    E  S E  S H        S S  
-------------------|---------------------------|-------------------------|
-------------------|--6-6-6-6-6--L-------------|--6----6----6------------|
--6----------------|--7-7-7-7-7--L---------x-x-|--7--x-7--x-7--------x-x-|
--7----------------|-----------------------x-x-|-----x----x----------x-x-|
-------------------|---------------------------|-------------------------|
-------------------|---------------------------|-------------------------|


  H        Q.      E      Q    Q      E   E   Q      
----------------------|---9-------------------------|
--8--------L------/8--|--10-------------------------|
--7--------L----------|----------------------10b----|
----------------------|--------7\----11-------------|
----------------------|--------7\--------12---------|
----------------------|--------7\-------------------|


  PM PM PM PM                      PM PM PM PM                  
  S  S  E  E  Q      S S Q         S  S  E  E  Q      S S Q     
--------------------------------|------------------------------|
--------------------------------|------------------------------|
--------------------------------|------------------------------|
-------------------------5br----|--------------5br--------3----|
--------------6br---------------|-------------------------3----|
--0--0--0--0---------7-L--------|--0--0--0--0---------7-L-3----|


  PM PM PM PM                      PM PM PM PM                  
  S  S  E  E  Q      S S Q         S  S  E  E  Q      S S Q     
--------------------------------|------------------------------|
--------------------------------|------------------------------|
--------------------------------|------------------------------|
-------------------------5br----|--------------6br--------3----|
--------------6br---------------|-------------------------3----|
--0--0--0--0---------7-L--------|--0--0--0--0---------7-L-3----|


  PM PM PM PM                      PM PM PM PM                  
  S  S  E  E  Q      S S Q         S  S  E  E  Q      S S Q     
--------------------------------|------------------------------|
--------------------------------|------------------------------|
--------------------------------|------------------------------|
-------------------------5br----|--------------5br--------3----|
--------------6br---------------|-------------------------3----|
--0--0--0--0---------7-L--------|--0--0--0--0---------7-L-3----|


  PM PM PM PM                      PM PM PM PM                    
  S  S  E  E  Q      S S Q         S  S  E  E  Q      S S Q       
--------------------------------|--------------------------------|
--------------------------------|--------------------------------|
--------------------------------|--------------------------------|
-------------------------5br----|--------------6br--------6br----|
--------------6br---------------|--------------------------------|
--0--0--0--0---------7-L--------|--0--0--0--0---------7-L--------|


                    SH                            SH        
  Q     E  Q        Q.          Q     E  Q        Q.        
-----------------<>13br------|-----------------<>13br------|
-----------------------------|-----------------------------|
-----------------------------|-----------------------------|
--7b----7--7b----------------|--7b----7--7b----------------|
-----------------------------|-----------------------------|
-----------------------------|-----------------------------|


                    SH                      SH            
  Q     E  Q        Q.          Q.          Q.      Q     
-----------------<>13br------|-----------<>15b------L----|
-----------------------------|---------------------------|
-----------------------------|---------------------------|
--7b----7--7b----------------|--7br----------------------|
-----------------------------|---------------------------|
-----------------------------|---------------------------|


  PM PM PM     PM PM     PM    PM PM PM     PM PM PM PM  
  E  E  E  E   E  E  E   E     E  E  E  E   E  E  E  E   
----------------------------|---------------------------|
----------------------------|---------------------------|
----------------------------|---------------------------|
----------------------------|---------------------------|
-----------1~--------1~-----|-----------1~--------------|
--0--2--0------2--0------2--|--0--2--0------2--0--3--2--|


  PM PM PM     PM PM     PM    PM PM PM     PM PM PM PM                      
  E  E  E  E   E  E  E   E     E  E  E  E   E  E  E  E     W                 
----------------------------|---------------------------|-------------------|
----------------------------|---------------------------|-------------------|
----------------------------|---------------------------|-------------------|
----------------------------|---------------------------|-------------------|
-----------1~--------1~-----|-----------1~--------------|-------------------|
--0--2--0------2--0------2--|--0--2--0------2--0--3--2--|-------------------|


  H        Q    E  E     E  E  E  E  E  E  E  E     E  E  E  E  E  E  E  E   
----------------------|--------------------------|--------------------------|
----------------------|--------------------------|--------------------------|
----------------------|--------------------------|--------------------------|
--0--------7----L--7--|--7--7--7--7--7--7--7--7--|--8--L--8--8--8--8--8--L--|
--0--------5----L--5--|--5--5--5--5--5--5--5--5--|--8--L--8--8--8--8--8--L--|
--0--------7----L--7--|--7--7--7--7--7--7--7--7--|--5--L--5--5--5--5--5--L--|


  H        H           H        Q    E  E     E  E  E  E  E  E  E  E   
--------------------|----------------------|--------------------------|
--------------------|----------------------|--------------------------|
--------------------|----------------------|--------------------------|
--2--------2--------|--0--------7----L--7--|--7--7--7--7--7--7--7--7--|
--3--------3--------|--0--------5----L--5--|--5--5--5--5--5--5--5--5--|
--5--------2--------|--0--------7----L--7--|--7--7--7--7--7--7--7--7--|


  E  E  E  E  E  E  E  E      H        H           H        Q    E  E   
--------------------------|---------------------|----------------------|
--------------------------|---------------------|----------------------|
--------------------------|---------------------|----------------------|
--8--L--8--8--8--8--8--8--|--10--------2--------|--0--------7----L--7--|
--8--L--8--8--8--8--8--8--|--10--------3--------|--0--------5----L--5--|
--5--L--5--5--5--5--5--5--|--10--------2--------|--0--------7----L--7--|


  E  E  E  E  E  E  E  E     E  E  E  E  E  E  E  E     H        H         
--------------------------|--------------------------|--------------------|
--------------------------|--------------------------|--------------------|
--------------------------|--------------------------|--------------------|
--7--7--7--7--7--7--7--7--|--8--L--8--8--8--8--8--L--|--2--------5--------|
--5--5--5--5--5--5--5--5--|--8--L--8--8--8--8--8--L--|--3--------7--------|
--7--7--7--7--7--7--7--7--|--5--L--5--5--5--5--5--L--|--2--------5--------|

  E  Q    E  E   Q    E     E   Q    E   E   E   E    E     W            
-------------------------|-------------------------------|-----------------|
-------------------------|-------------------------------|-----------------|
-------------------------|-------------------------------|-----------------|
-------------------------|-------------------------------|--11-------------|
--5--8----5--7--10----7--|--8--12----8--10--13--10s--12--|--12-------------|
-------------------------|-------------------------------|-----------------|


  H        H            E   E   E   E   E    E   E   E   
--------------------|--10--10--10-----------------------|
--------------------|--10--10--10--13--13s--11--11--10--|
--------------------|--------------12--12s--10--10--10--|
--3--------2--------|-----------------------------------|
--3--------3--------|-----------------------------------|
--------------------|-----------------------------------|


   E  E  E  E  E   E   E  E     E    E   E   E   E   E   E   E   
-----------------------------|----------------------------------|
--10--8--8--8--8--10--10--8--|--8S--10--10--10--10--11--10--10--|
--10--9--9--9--9--10--10--9--|--9S--10--10--10--10--10--10--10--|
-----------------------------|----------------------------------|
-----------------------------|----------------------------------|
-----------------------------|----------------------------------|


   E   E   E   E   E   E   E   E      E   E   E   E   E    E   E   E   
-----------------------9---9---9--|--10--10--10-----------------------|
--10--10--10--10--10--10--10--10--|--10--10--10--13--13s--11--11--10--|
--10--10--10--10--10--------------|--------------12--12s--10--10--10--|
----------------------------------|-----------------------------------|
----------------------------------|-----------------------------------|
----------------------------------|-----------------------------------|


   E  E  E  E  E   E   E  E     E    E   E   E   E   E   E   E   
-----------------------------|----------------------------------|
--10--8--8--8--8--10--10--8--|--8S--10--10--10--10--10--10--10--|
--10--9--9--9--9--10--10--9--|--9S--10--10--10--10--10--10--10--|
-----------------------------|----------------------------------|
-----------------------------|----------------------------------|
-----------------------------|----------------------------------|


   E   E   E   E   E   E   E   E      E   E   E   E   E    E   E   E   
----------------------12--12--12--|--10--10--10-----------------------|
--10--10--10--10--10--10--10--10--|--10--10--10--13--13s--11--11--10--|
--10--10--10--10--10--------------|--------------12--12s--10--10--10--|
----------------------------------|-----------------------------------|
----------------------------------|-----------------------------------|
----------------------------------|-----------------------------------|


   E  E  E  E  E   E   E  E     E    E   E   E   E   E   E   E   
-----------------------------|----------------------------------|
--10--8--8--8--8--10--10--8--|--8S--10--10--10--10--11--10--10--|
--10--9--9--9--9--10--10--9--|--9S--10--10--10--10--10--10--10--|
-----------------------------|----------------------------------|
-----------------------------|----------------------------------|
-----------------------------|----------------------------------|


   E   E   E   E   E   E   E   E      E   E   E   E   E    E   E   E   
-----------------------9---9---9--|--10--10--10-----------------------|
--10--10--10--10--10--10--10--10--|--10--10--10--13--13s--11--11--10--|
--10--10--10--10--10--------------|--------------12--12s--10--10--10--|
----------------------------------|-----------------------------------|
----------------------------------|-----------------------------------|
----------------------------------|-----------------------------------|


   E  E  E  E  E   E   E  E     E    E   E   E   E   E   E   E   
-----------------------------|----------------------------------|
--10--8--8--8--8--10--10--8--|--8S--10--10--10--10--10--10--10--|
--10--9--9--9--9--10--10--9--|--9S--10--10--10--10--10--10--10--|
-----------------------------|----------------------------------|
-----------------------------|----------------------------------|
-----------------------------|----------------------------------|


  PM   PM                     PM PM PM PM                    
  E  S E  S Q.       E  E     S  S  E  E  Q      S S Q       
---------------------------|--------------------------------|
---------------------------|--------------------------------|
---------------------------|--------------------------------|
---------------------------|-------------------------5br----|
---------------------------|--------------6br---------------|
--7----7----7br------3--2--|--0--0--0--0---------7-L--------|


  PM PM PM PM                                           
  S  S  E  E  Q      S S Q         E  H.           E    
--------------------------------|---------------------||
-------------------------6br----|---------------------||
--------------------------------|---------------------||
--------------6br---------------|--0------------------||
--------------------------------|--0------------------||
--0--0--0--0---------7-L--------|--0------------------||

--
Hope you liked my tab, rate and comment :)
--
Duration Legend
---------------
W - whole
H - half
Q - quarter
E - 8th
S - 16th
T - 32nd
X - 64th
. - note dotted
|-n-|  - n-tuplets


Tablature Legend
----------------
L - tied note
x - dead note
g - grace note
(n) - ghost note
> - accentuded note
NH - natural harmonic
AH - artificial harmonic
TH - tapped harmonic
SH - semi harmonic
PH - pitch harmonic
h - hammer on
p - pull off
b - bend
br - bendRelease
pb - preBend
pbr - preBendRelease
brb - bendReleaseBend
\n/ - tremolo bar dip
\n - tremolo bar dive
-/n - tremolo bar Release up
/n\ - tremolo bar inverted dip
/n - tremolo bar return
-\n - tremolo bar Release down
S - shift slide
s - legato slide
/ -  slide into from below or out of upwards
\ -  slide into from above or out of downwards
~ - vibrato
W - wide vibrato
tr - trill
TP - tremolo picking
T - tapping
S - slap
P - pop
< - fade in
^ - brush up
v - brush down
comments
We did not receive enough feedback on this tab! Please rate:
print report bad tab
1 2 3 4 5
I want to post or [tab]
guest
You may want to rate the tab now too:
select rating
Please do not post tabs as comments. Select "correction" instead!