Oops, an error
Loading. Please wait.

Ryoujoku No Ame Bass Tab

ver2
ver2

Whole song

Interactive

More versions @911Tabs.com
389 views 1 this week
no commentswrite comment
1 2 3 4 5
please rate
Autoscroll
+/-
esc
set tempo
stop
Contributor
Difficulty
Tuning
advanced
C# G# C# F# A# D#
Hey! There's an official Ultimate Guitar app which is ideal
for learning songs when you're away from computer. Get the app
WARNING: You are trying to view
                                    content from Ultimate-Guitar.com
                                    in an unauthorized application,
                                    which is prohibited.

                                    Please use an official Ultimate
                                    Guitar Tabs application for iPhone,
                                    iPad or Android to access legitimate
                                    chords, guitar, bass, and drum tabs
                                    from Ultimate-Guitar.com database.

                                    Type "ultimate guitar tabs" in Apple
                                    App Store's or Android Market's
                                    search to find the application.
It's official bass score from DIR EN GREY BASS & DRUMS BOOK feat. Toshiya & Shinya.
Enjoy!



      W                   W                   W                 
F#||-------------------|-------------------|-------------------|
C#||-------------------|-------------------|-------------------|
G#||-------------------|-------------------|-------------------|
C#||-------------------|-------------------|-------------------|


  W                   W                   W                   W                 
-------------------|-------------------|-------------------|-------------------|
-------------------|-------------------|-------------------|-------------------|
-------------------|-------------------|-------------------|-------------------|
-------------------|-------------------|-------------------|-------------------|


  W                   Q    E  E  Q.     E     E  E  Q     E   E  E   E   
-------------------|-----------------------|----------------------------|
-------------------|-----------------------|----------------------------|
-------------------|-----------------------|----------------------------|
-------------------|--0----0--0--0------0--|--L--0--7\----3p--0--2h--3--|


  Q    E  E  E  E   E  E     E  E  E  E  E  E  E   E     Q    E  E  Q.     E   
--------------------------|---------------------------|-----------------------|
--------------------------|---------------------------|-----------------------|
--------------------------|---------------------------|-----------------------|
--5----5--5--5--5s--3--2--|--3--3--3--3--3--3--3s--2--|--0----0--0--0------0--|


  E  E  Q     E  E  E   E     Q    E  E  E  E  E   E   
---------------------------|--------------------------|
---------------------------|--------------------------|
---------------------------|--------------------------|
--L--0--7\----3--0--2h--3--|--5----L--5--5--5--3s--5--|


  E  E  E  E   S S E  E   E     S S E  E  E  S S E  E  E   
-----------------------------|----------------------------|
-----------------------------|----------------------------|
-----------4p--0-0-0---------|----------------------------|
--7--7--7-------------5s--3--|--0-0-0--0-----0-0-0--0-----|


  S S E  E  E  S S E  E  E     S S E  E  E  S S E  E  E   
----------------------------|----------------------------|
----------------------------|----------------------------|
----------------------------|----------------------------|
--0-0-0--0-----0-0-0--0-----|--0-0-0--0-----0-0-0--0-----|


  S S E  E  E  S S E  E  E     S S E  E  E  S S E  E  E   
----------------------------|----------------------------|
----------------------------|----------------------------|
----------------------------|----------------------------|
--0-0-0--0-----0-0-0--0-----|--5-5-5--5-----5-5-5--5--3--|


  S S E  E  E  S S E  E  E     S S E  E  E  S S E  E  E   
----------------------------|----------------------------|
----------------------------|----------------------------|
----------------------------|----------------------------|
--2-2-2--2-----3-3-3--3--2--|--0-0-0--0-----0-0-0--0-----|


  S S E  E  E  S S E  E  E     S S E  E  E  S S E  E  E   
----------------------------|----------------------------|
----------------------------|----------------------------|
----------------------------|----------------------------|
--0-0-0--0-----0-0-0--0-----|--5-5-5--5-----5-5-5--5--3--|


  S S E  E  E  S S E  E  E     S S E  E  E  E   E  Q     
----------------------------|---------------------------|
----------------------------|---------------------------|
----------------------------|---------------------------|
--2-2-2--2-----3-3-3--3--2--|--0-0-0--7--8--7p--0--3----|


  S S E  E  E  Q     Q       S S E  E  E  E   E  Q     
--------------------------|---------------------------|
--------------------------|---------------------------|
--------------------------|---------------------------|
--0-0-0--7--8--7s----3----|--0-0-0--7--8--7p--0--3----|


  E  E  E  E   Q     Q       E  S  S E  E  E  E  E  E   
--------------------------|----------------------------|
--------------------------|----------------------------|
--------------------------|-----5p-0-------------------|
--7--8--7--5s--7s----3----|--0-------3-----0-----0-----|


  E  E  E  E  E  E  E  E     E  S  S E  E  E  E  E  E   
--------------------------|----------------------------|
--------------------------|----------------------------|
--------------------------|-----5p-0-------------------|
--0-----0-----0-----0-----|--5-------5-----5-----5--3--|


  E  S  S E  E  E  S  S E  E     E  S  S E  E  E  E  E  E   
------------------------------|----------------------------|
------------------------------|----------------------------|
-----5p-0----------4p-0-------|-----5p-0-------------------|
--2-------2-----3-------3--2--|--0-------3-----0-----0-----|


  E  E  E  E  E  E  E  E     E  S  S E  E  E  E  E  E   
--------------------------|----------------------------|
--------------------------|----------------------------|
--------------------------|-----5p-0-------------------|
--0-----0-----0-----0-----|--5-------5-----5-----5--3--|


  E  S  S E  E  E  S  S E  E     E  S  S E  E  E  S  S E  E   
------------------------------|------------------------------|
------------------------------|------------------------------|
-----5p-0----------4p-0-------|-----5p-0----------5p-0-------|
--2-------2-----3-------3--2--|--5-------3--0--5-------3--0--|


  E  S  S E  E  E  S  S E  E     E  S  S E  E  E  S  S E  E   
------------------------------|------------------------------|
------------------------------|------------------------------|
-----5p-0----------5p-0-------|-----5p-0----------5p-0-------|
--5-------3--0--5-------3--0--|--5-------5--0--5-------5--3--|


  E  S  S E  E  E  S  S E  E     E  S  S E  E  E  S  S E  E   
------------------------------|------------------------------|
------------------------------|------------------------------|
-----5p-0----------5p-0-------|-----5p-0----------5p-0-------|
--2-------2--2--3-------3--2--|--5-------3--0--5-------3--0--|


  E  S  S E  E  E  S  S E  E     E  S  S E  E  E  S  S E  E   
------------------------------|------------------------------|
------------------------------|------------------------------|
-----5p-0----------5p-0-------|-----5p-0----------5p-0-------|
--5-------3--0--5-------3--0--|--5-------5--0--5-------5--3--|


  E  S S E  E  S S S S E  S S    Q    E  E  Q.     E   
------------------------------|-----------------------|
------------------------------|-----------------------|
-----5-0----------------------|-----------------------|
--2------2-----2-3-3---x--3-2-|--0----0--0--0------0--|


  E  E  Q     E   E  E   E     Q    E  E  E  E   E  E   
----------------------------|--------------------------|
----------------------------|--------------------------|
----------------------------|--------------------------|
--L--0--7\----3p--0--2h--3--|--5----5--5--5--5s--3--2--|


                                                                               
  E  E  E  E  E  E  E   E     Q    E  E  Q.     E     E  E  Q     E  E  E   E   
---------------------------|-----------------------|---------------------------|
---------------------------|-----------------------|---------------------------|
---------------------------|-----------------------|---------------------------|
--3--3--3--3--3--3--3s--2--|--0----0--0--0------0--|--L--0--7\----3--0--2h--3--|


  Q    E  E  E  E  E   E     Q.     E  E   E  E  S  S  
--------------------------|---------------------------|
--------------------------|---------------------------|
--------------------------|------------4p--0--0-------|
--5----L--5--5--5--3s--5--|--7------7------------5h-7-|


  E   E  E   E  H           H        Q    E   E     H.           E  E   
-------------------------|-----------------------|---------------------|
-------------------------|-----------------------|---------------------|
--5p--0------------------|-----------------------|---------------------|
---------5h--7--0--------|--0--------0----5s--7--|--8------------8--8--|


  E  E  E  E  Q    E   E     E   E  E   E  E   E  E   E   
--------------------------|------------------------------|
--------------------------|------------------------------|
--------------4----3s--4--|--5p--0---------7p--0---------|
--7--7--7--7--------------|---------5h--7---------5h--7--|


  E  E  E   E  E  E  E  E     Q    Q    Q    E   E     E  E  E  E  E  E  E  E   
---------------------------|------------------------|--------------------------|
---------------------------|------------------------|--------------------------|
--8------------------------|------------------------|--------------------------|
-----8--7h--8--7--5--3--2--|--7----7----7----5h--7--|--3--3--3--3--2--2--2--2--|


  E  S  S E  E  E  S  S E  E     E  S  S E  E  E  S  S E  E   
------------------------------|------------------------------|
------------------------------|------------------------------|
-----5p-0----------5p-0-------|-----5p-0----------5p-0-------|
--5-------3--0--5-------3--0--|--5-------3--0--5-------3--0--|


  E  S  S E  E  E  S  S E  E     E  S  S E  E  E  S  S E  E   
------------------------------|------------------------------|
------------------------------|------------------------------|
-----5p-0----------5p-0-------|-----5p-0----------5p-0-------|
--5-------5--0--5-------5--3--|--2-------2--2--3-------3--2--|


  E  S  S E  E  E  S  S E  E     E  S  S E  E  E  S  S E  E   
------------------------------|------------------------------|
------------------------------|------------------------------|
-----5p-0----------5p-0-------|-----5p-0----------5p-0-------|
--5-------3--0--5-------3--0--|--5-------3--0--5-------3--0--|


  E  S  S E  E  E  S  S E  E     E  S  S E  E  E  S  S E  E   
------------------------------|------------------------------|
------------------------------|------------------------------|
-----5p-0----------5p-0-------|-----5p-0----------5p-0-------|
--5-------5--0--5-------5--3--|--2-------2--2--3-------3--2--|


  S S E  E  E  E   E  Q       S S E  E  E  E   E  Q     
---------------------------|---------------------------|
---------------------------|---------------------------|
---------------------------|---------------------------|
--0-0-0--7--8--7p--0--3----|--0-0-0--7--8--7/--L--3----|


  S S E  E  E  E   E  Q       E  E  E  E   E  E  E   E   
---------------------------|----------------------------|
---------------------------|----------------------------|
---------------------------|---------------------8s--7--|
--0-0-0--7--8--7p--0--3----|--7--8--7--5s--7--7---------|


  S S E  E  E  E   E  Q       S S E  E  E  E   E  Q     
---------------------------|---------------------------|
---------------------------|---------------------------|
---------------------------|---------------------------|
--0-0-0--7--8--7p--0--3----|--0-0-0--7--8--7/--L--3----|


  S S E  E  E  E   E  Q       E  E  E  E   E  E  E   E   
---------------------------|----------------------------|
---------------------------|----------------------------|
---------------------------|---------------------8s--7--|
--0-0-0--7--8--7p--0--3----|--7--8--7--5s--7--7---------|


  E  E  E  E   E  E   Q        E  E  E  E   E  E  E   E   
----------------------------|----------------------------|
----------------------------|----------------------------|
----------------------------|---------------------8s--7--|
--7--8--7--5s--7--7s--3/----|--7--8--7--5s--7--7---------|


  E  E  E  E   E  E   Q        E  E  E  E  E  E   E   E   
----------------------------|----------------------------|
----------------------------|----------------------------|
----------------------------|----------------------------|
--7--8--7--5s--7--7s--3/----|--7--8--7--5--7--8--10--11--|


  E  E  E  E  E  E  E  E     E  E  E  E  E  E  E  E   
--------------------------|--------------------------|
--------------------------|--------------------------|
-----------5--------------|-----5--------------8--7--|
--0--x--x-----x--x--0--x--|--0-----x--x--0--x--------|


  E  E  E  E  E  E  E  E     E  E  E  E  E  E  E  E     W                 
--------------------------|--------------------------|-------------------|
--------------------------|--------------------------|-------------------|
-----------5--------------|-----5--------------8--7--|-------------------|
--0--x--x-----x--x--0--x--|--0-----x--x--0--x--------|-------------------|


  Q    E  E  Q.     E     E  E  Q     E   E  E   E     Q    E  E  E  E   E  E   
-----------------------|----------------------------|--------------------------|
-----------------------|----------------------------|--------------------------|
-----------------------|----------------------------|--------------------------|
--0----0--0--0------0--|--L--0--7\----3p--0--2h--3--|--5----5--5--5--5s--3--2--|


  E  E  E  E  E  E  E   E     Q    E  E  Q.     E     E  E  Q     E  E  E   E   
---------------------------|-----------------------|---------------------------|
---------------------------|-----------------------|---------------------------|
---------------------------|-----------------------|---------------------------|
--3--3--3--3--3--3--3s--2--|--0----0--0--0------0--|--L--0--7\----3--3--2h--3--|


  Q    E  E  E  E  E   E     Q.     E  E   E  E  S  S  
--------------------------|---------------------------|
--------------------------|---------------------------|
--------------------------|------------4p--0--0-------|
--5----L--5--5--5--3s--5--|--7------7------------5h-7-|


  E   E  E   E  H           H        Q    E   E     H.           E  E   
-------------------------|-----------------------|---------------------|
-------------------------|-----------------------|---------------------|
--5p--0------------------|-----------------------|---------------------|
---------5h--7--0--------|--0--------0----5s--7--|--8------------8--8--|


  E  E  E  E  Q    E   E     E   E  E   E  E   E  E   E   
--------------------------|------------------------------|
--------------------------|------------------------------|
--------------4----3s--4--|--5p--0---------7p--0---------|
--7--7--7--7--------------|---------5h--7---------5h--7--|


  E  E  E   E  E  E  E  E     Q    Q    Q    E   E     E  E  E  E  E  E  E  E   
---------------------------|------------------------|--------------------------|
---------------------------|------------------------|--------------------------|
--8------------------------|------------------------|--------------------------|
-----8--7h--8--7--5--3--2--|--7----7----7----5h--7--|--3--3--3--3--2--2--2--2--|


  Q.     S S Q.     E     E  E  Q    E  Q    E     E  Q    E  E  E  E  E   
-----------------------|------------------------|-------------------------|
-----------------------|------------------------|-------------------------|
-----------------------|------------------------|-------------5--5-----5--|
--0------0-0-0------0--|--0--0--3----L--7----7--|--8--8----8--------------|


  E  E  E  E  E  E  E  E     E  E  E  S  S H         
--------------------------|-------------------------|
--------------------------|-------------------------|
--4--5--8--7--------------|-----------5p-0----------|
--------------8--7--3--2--|--0--0----------0--------|


  E  S  S E   S  S E   S  S E  E      E  E  E  E  Q.     E   
-----------------------------------|------------------------|
-----------------------------------|------------------------|
-----5p-0--------------------------|------------------------|
--0-------5h--7p-5-3h--5p-3-2--3s--|--8--8-----8--8------5--|


                                                                              
  E  Q    E  E  E  E  E     E  Q    E  H           E  E  E   E  E   E  E   E   
-------------------------|----------------------|-----------------------------|
-------------------------|----------------------|-----------------------------|
-------------4--5--7--8--|----------------------|-----------------------------|
--7--7----7--------------|--0--0----0--0--------|--0--0--7s--3--3p--0--2h--3--|


                                                                      |--3--|   
  E  Q    E  Q    E   E     E  Q    E  H           E   E  E  E   Q    E  E  E   
-------------------------|----------------------|------------------------------|
-------------------------|----------------------|------------------------------|
-------------------------|-------------4--------|--4s--5--0--5s--7----7--0--7--|
--5--5----0--0----3h--5--|--7--7----7-----------|------------------------------|


  |----3----|                                                                   
  Q    Q    Q    Q     E   E     E  E  E.  S Q    E  E     Q    Q    Q    Q     
------------------------------|-------------------------|----------------------|
------------------------------|-------------------------|----------------------|
--8----0----8-----------------|-------------------------|----------------------|
-----------------7----10s--8--|--7--7--7---8-L----5--8--|--7----7----7----3----|


  S S E  E  E  E   E  Q       S S E  E  E  Q     Q       Q    Q    H          
---------------------------|--------------------------|---------------------||
---------------------------|--------------------------|---------------------||
---------------------------|--------------------------|---------------------||
--0-0-0--7--8--7p--0--3----|--0-0-0--7--8--7s----3----|--0------------------||




Duration Legend
---------------
W - whole
H - half
Q - quarter
E - 8th
S - 16th
T - 32nd
X - 64th
. - note dotted
|-n-|  - n-tuplets


Tablature Legend
----------------
L - tied note
x - dead note
g - grace note
(n) - ghost note
> - accentuded note
NH - natural harmonic
AH - artificial harmonic
TH - tapped harmonic
SH - semi harmonic
PH - pitch harmonic
h - hammer on
p - pull off
b - bend
br - bendRelease
pb - preBend
pbr - preBendRelease
brb - bendReleaseBend
\n/ - tremolo bar dip
\n - tremolo bar dive
-/n - tremolo bar Release up
/n\ - tremolo bar inverted dip
/n - tremolo bar return
-\n - tremolo bar Release down
S - shift slide
s - legato slide
/ -  slide into from below or out of upwards
\ -  slide into from above or out of downwards
~ - vibrato
W - wide vibrato
tr - trill
TP - tremolo picking
T - tapping
S - slap
P - pop
< - fade in
^ - brush up
v - brush down
comments
We did not receive enough feedback on this tab! Please rate:
print report bad tab
1 2 3 4 5
I want to post or [tab]
guest
You may want to rate the tab now too:
select rating
Please do not post tabs as comments. Select "correction" instead!