Oops, an error
Loading. Please wait.

Saku Tab

ver1
ver1

Whole song

Interactive

More versions @911Tabs.com
6,738 views 1 this week
1 commentread comment
1 2 3 4 5
worth learning
x 6
Autoscroll
+/-
esc
set tempo
stop
Contributor
Difficulty
Tuning
novice
D A D G B E
Hey! There's an official Ultimate Guitar app which is ideal
for learning songs when you're away from computer. Get the app
WARNING: You are trying to view
                                    content from Ultimate-Guitar.com
                                    in an unauthorized application,
                                    which is prohibited.

                                    Please use an official Ultimate
                                    Guitar Tabs application for iPhone,
                                    iPad or Android to access legitimate
                                    chords, guitar, bass, and drum tabs
                                    from Ultimate-Guitar.com database.

                                    Type "ultimate guitar tabs" in Apple
                                    App Store's or Android Market's
                                    search to find the application.
Song: Saku
Band: Dir en Grey
Album: Withering to Death

Guitar I

D#||-----------------------|-----------------------|
A#||-----------------------|-----------------------|
F#||-----------------------|-----------------------|
C#||--2----3----2--2--0----|--2----3----2--2--0----|
G#||--2----3----2--2--0----|--2----3----2--2--0----|
C#||--2----3----2--2--0----|--2----3----2--2--0----|


                                                                        
-----------------------|-----------------------|-----------------------|
-----------------------|-----------------------|-----------------------|
-----------------------|-----------------------|-----------------------|
--2----3----2--2--0----|--2----0----2--2--2----|--2----3----2--2--0----|
--2----3----2--2--0----|--2----0----2--2--2----|--2----3----2--2--0----|
--2----3----2--2--0----|--2----0----2--2--2----|--2----3----2--2--0----|


                                                                        
-----------------------|-----------------------|-----------------------|
-----------------------|-----------------------|-----------------------|
-----------------------|-----------------------|-----------------------|
--2----3----2--2--0----|--2----3----2--2--0----|--2----0----2--2--2----|
--2----3----2--2--0----|--2----3----2--2--0----|--2----0----2--2--2----|
--2----3----2--2--0----|--2----3----2--2--0----|--2----0----2--2--2----|


                                                                        
-----------------------|-----------------------|-----------------------|
-----------------------|-----------------------|-----------------------|
-----------------------|-----------------------|-----------------------|
--2----3----2--2--0----|--2----3----2--2--0----|--2----3----2--2--0----|
--2----3----2--2--0----|--2----3----2--2--0----|--2----3----2--2--0----|
--2----3----2--2--0----|--2----3----2--2--0----|--2----3----2--2--0----|


                                                                        
-----------------------|-----------------------|-----------------------|
-----------------------|-----------------------|-----------------------|
-----------------------|-----------------------|-----------------------|
--2----0----2--2--2----|--2----3----2--2--0----|--2----3----2--2--0----|
--2----0----2--2--2----|--2----3----2--2--0----|--2----3----2--2--0----|
--2----0----2--2--2----|--2----3----2--2--0----|--2----3----2--2--0----|


                                                                       
-----------------------|-----------------------|----------------------|
-----------------------|-----------------------|----------------------|
-----------------------|-----------------------|--1---------2---------|
--2----3----2--2--0----|--2----0----2--2--2----|-------2---------3----|
--2----3----2--2--0----|--2----0----2--2--2----|----------------------|
--2----3----2--2--0----|--2----0----2--2--2----|----------------------|


                                                                  
-----------0--------|----------------------|------------1--------|
-----------0--------|----------------------|------------0--------|
--1--------1--------|--1---------2---------|--1---------1--------|
-----------2--------|-------2---------3----|-------2-------------|
--------------------|----------------------|---------------------|
--------------------|----------------------|---------------------|


                                                                 
----------------------|-------------------|---------------------|
----------------------|-------------------|---------------------|
--x----9----x----9----|--------------9----|--x----9----x--------|
--x----9----x----9----|--------------9----|--x----9----x--------|
--x----7----x----7----|--------------7----|--x----7----x--------|
----------------------|-------------------|---------------------|


                                                                
-------------------|----------------------|--------------------|
-------------------|----------------------|--------------------|
------9------------|--x----9----x----9----|----------x----9----|
------9------------|--x----9----x----9----|----------x----9----|
------7------------|--x----7----x----7----|----------x----7----|
-------------------|----------------------|--------------------|


                                                                  
----------------------|------------------|-----------------------|
----------------------|------------------|-----------------------|
--x----9----x----9----|------------------|-----------------------|
--x----9----x----9----|------------------|--2----3----2--2--0----|
--x----7----x----7----|------------------|--2----3----2--2--0----|
----------------------|------------------|--2----3----2--2--0----|


                                                                            
-------------------------|-----------------------|-------------------------|
-------------------------|-----------------------|-------------------------|
-------------------------|-----------------------|-------------------------|
--2----x--2--x--2--2--2--|--2----3----2--2--0----|--2----x--2--x--2--2--2--|
--2----x--2--x--2--2--2--|--2----3----2--2--0----|--2----x--2--x--2--2--2--|
--2----x--2--x--2--2--2--|--2----3----2--2--0----|--2----x--2--x--2--2--2--|


                                                                          
-----------------------|-------------------------|-----------------------|
-----------------------|-------------------------|-----------------------|
-----------------------|-------------------------|-----------------------|
--2----3----2--2--0----|--2----x--2--x--2--2--2--|--2----3----2--2--0----|
--2----3----2--2--0----|--2----x--2--x--2--2--2--|--2----3----2--2--0----|
--2----3----2--2--0----|--2----x--2--x--2--2--2--|--2----3----2--2--0----|


                                                                  
----------------------|----------------------|-------------------|
----------------------|----------------------|-------------------|
----------------------|--x----9----x----9----|--------------9----|
--2--------2--2--2----|--x----9----x----9----|--------------9----|
--2--------2--2--2----|--x----7----x----7----|--------------7----|
--2--------2--2--2----|----------------------|-------------------|


                                                                 
---------------------|-------------------|----------------------|
---------------------|-------------------|----------------------|
--x----9----x--------|------9------------|--x----9----x----9----|
--x----9----x--------|------9------------|--x----9----x----9----|
--x----7----x--------|------7------------|--x----7----x----7----|
---------------------|-------------------|----------------------|


                                                               
--------------------|----------------------|------------------|
--------------------|----------------------|------------------|
----------x----9----|--x----9----x----9----|------------------|
----------x----9----|--x----9----x----9----|------------------|
----------x----7----|--x----7----x----7----|------------------|
--------------------|----------------------|------------------|


                                                                          
-----------------------|-------------------------|-----------------------|
-----------------------|-------------------------|-----------------------|
-----------------------|-------------------------|-----------------------|
--2----3----2--2--0----|--2----x--2--x--2--2--2--|--2----3----2--2--0----|
--2----3----2--2--0----|--2----x--2--x--2--2--2--|--2----3----2--2--0----|
--2----3----2--2--0----|--2----x--2--x--2--2--2--|--2----3----2--2--0----|


                                                                            
-------------------------|-----------------------|-------------------------|
-------------------------|-----------------------|-------------------------|
-------------------------|-----------------------|-------------------------|
--2----x--2--x--2--2--2--|--2----3----2--2--0----|--2----x--2--x--2--2--2--|
--2----x--2--x--2--2--2--|--2----3----2--2--0----|--2----x--2--x--2--2--2--|
--2----x--2--x--2--2--2--|--2----3----2--2--0----|--2----x--2--x--2--2--2--|


                                                                      
-----------------------|----------------------|----------------------|
-----------------------|----------------------|----------------------|
-----------------------|----------------------|--1---------2---------|
--2----3----2--2--0----|--2--------2--2-------|-------2---------3----|
--2----3----2--2--0----|--2--------2--2--2----|----------------------|
--2----3----2--2--0----|--2--------2--2--2----|----------------------|


                                                                  
-----------0---------|----------------------|--------------------|
-----------0----0----|----------------------|--------------------|
--1--------1---------|--1---------2---------|--1-----------------|
-----------2---------|-------2---------3----|-------2------------|
---------------------|----------------------|--------------------|
---------------------|----------------------|--------------------|


                                                                     
--5--5-5-5-5-5-5-5-5-5-5-5-5-5-5-|--5-5-5-5-5-5-5-5-5-5-5-5-5-5-5-5-|
--5--5-5-5-5-5-5-5-5-5-5-5-5-5-5-|--5-5-5-5-5-5-5-5-5-5-5-5-5-5-5-5-|
--5--5-5-5-5-5-5-5-5-5-5-5-5-5-5-|--5-5-5-5-5-5-5-5-5-5-5-5-5-5-5-5-|
--5--5-5-5-5-5-5-5-5-5-5-5-5-5-5-|--5-5-5-5-5-5-5-5-5-5-5-5-5-5-5-5-|
--7--7-7-7-7-7-7-7-7-7-7-7-7-7-7-|--7-7-7-7-7-7-7-7-7-7-7-7-7-7-7-7-|
---------------------------------|----------------------------------|


                                                                     
--3--3-3-3-3-3-3-3-3-3-3-3-3-3-3-|--3-3-3-3-3-3-3-3-3-3-3-3-3-3-3-3-|
--3--3-3-3-3-3-3-3-3-3-3-3-3-3-3-|--3-3-3-3-3-3-3-3-3-3-3-3-3-3-3-3-|
--4--4-4-4-4-4-4-4-4-4-4-4-4-4-4-|--4-4-4-4-4-4-4-4-4-4-4-4-4-4-4-4-|
--5--5-5-5-5-5-5-5-5-5-5-5-5-5-5-|--5-5-5-5-5-5-5-5-5-5-5-5-5-5-5-5-|
--5--5-5-5-5-5-5-5-5-5-5-5-5-5-5-|--5-5-5-5-5-5-5-5-5-5-5-5-5-5-5-5-|
---------------------------------|----------------------------------|


                                                                     
--5--5-5-5-5-5-5-5-5-5-5-5-5-5-5-|--5-5-5-5-5-5-5-5-5-5-5-5-5-5-5-5-|
--5--5-5-5-5-5-5-5-5-5-5-5-5-5-5-|--5-5-5-5-5-5-5-5-5-5-5-5-5-5-5-5-|
--5--5-5-5-5-5-5-5-5-5-5-5-5-5-5-|--5-5-5-5-5-5-5-5-5-5-5-5-5-5-5-5-|
--3--3-3-3-3-3-3-3-3-3-3-3-3-3-3-|--3-3-3-3-3-3-3-3-3-3-3-3-3-3-3-3-|
---------------------------------|----------------------------------|
---------------------------------|----------------------------------|


                                                                     
---------------------------------|----------------------------------|
--8--8-8-8-8-8-8-8-8-8-8-8-8-8-8-|--8-8-8-8-8-8-8-8-8-8-8-8-8-8-8-8-|
--7--7-7-7-7-7-7-7-7-7-7-7-7-7-7-|--7-7-7-7-7-7-7-7-7-7-7-7-7-7-7-7-|
--9--9-9-9-9-9-9-9-9-9-9-9-9-9-9-|--9-9-9-9-9-9-9-9-9-9-9-9-9-9-9-9-|
--7--7-7-7-7-7-7-7-7-7-7-7-7-7-7-|--7-7-7-7-7-7-7-7-7-7-7-7-7-7-7-7-|
---------------------------------|----------------------------------|


                                                                      
-------------------|------------------------|------------------------|
-------------------|------------------------|------------------------|
-------------------|------------------------|------------------------|
--7----------------|--2----0----x--x--x--x--|--2----0----x--x--x--x--|
--7----------------|--2----0----x--x--x--x--|--2----0----x--x--x--x--|
--7----------------|--2----0----x--x--x--x--|--2----0----x--x--x--x--|


                                                                        
------------------------|---------------------|------------------------|
------------------------|---------------------|------------------------|
------------------------|---------------------|------------------------|
--2----0----x--x--x--x--|--2--------7----5----|--2----0----x--x--x--x--|
--2----0----x--x--x--x--|--2--------7----5----|--2----0----x--x--x--x--|
--2----0----x--x--x--x--|--2--------7----5----|--2----0----x--x--x--x--|


                                                                        
------------------------|------------------------|---------------------|
------------------------|------------------------|---------------------|
------------------------|------------------------|---------------------|
--2----0----x--x--x--x--|--2----0----x--x--x--x--|--2--------7----5----|
--2----0----x--x--x--x--|--2----0----x--x--x--x--|--2--------7----5----|
--2----0----x--x--x--x--|--2----0----x--x--x--x--|--2--------7----5----|


                                                                           
------------------------|------------------------|------------------------|
------------------------|------------------------|------------------------|
------------------------|------------------------|------------------------|
--2----0----x--x--x--x--|--2----0----x--x--x--x--|--2----0----x--x--x--x--|
--2----0----x--x--x--x--|--2----0----x--x--x--x--|--2----0----x--x--x--x--|
--2----0----x--x--x--x--|--2----0----x--x--x--x--|--2----0----x--x--x--x--|


                                                                        
---------------------|------------------------|------------------------|
---------------------|------------------------|------------------------|
---------------------|------------------------|------------------------|
--2--------7----5----|--2----0--2----2--2--2--|--2----0--2----2--2--2--|
--2--------7----5----|--2----0--2----2--2--2--|--2----0--2----2--2--2--|
--2--------7----5----|--2----0--2----2--2--2--|--2----0--2----2--2--2--|


                                                                      
------------------------|--------------------|-----------------------|
------------------------|--------------------|-----------------------|
------------------------|--------------------|-----------------------|
--2----0--2----2--2--2--|--2--------4--------|--2----3----2--2--0----|
--2----0--2----2--2--2--|--2--------4--------|--2----3----2--2--0----|
--2----0--2----2--2--2--|--2--------4--------|--2----3----2--2--0----|


                                                                        
-----------------------|-----------------------|-----------------------|
-----------------------|-----------------------|-----------------------|
-----------------------|-----------------------|-----------------------|
--2----3----2--2--0----|--2----3----2--2--0----|--2----0----2--2--2----|
--2----3----2--2--0----|--2----3----2--2--0----|--2----0----2--2--2----|
--2----3----2--2--0----|--2----3----2--2--0----|--2----0----2--2--2----|


                                                                        
-----------------------|-----------------------|-----------------------|
-----------------------|-----------------------|-----------------------|
-----------------------|-----------------------|-----------------------|
--2----3----2--2--0----|--2----3----2--2--0----|--2----3----2--2--0----|
--2----3----2--2--0----|--2----3----2--2--0----|--2----3----2--2--0----|
--2----3----2--2--0----|--2----3----2--2--0----|--2----3----2--2--0----|


                                                      
-------------------|--5--5-5-5-5-5-5-5-5-5-5-5-5-5-5-|
-------------------|--5--5-5-5-5-5-5-5-5-5-5-5-5-5-5-|
-------------------|--5--5-5-5-5-5-5-5-5-5-5-5-5-5-5-|
--2----------------|--5--5-5-5-5-5-5-5-5-5-5-5-5-5-5-|
--2----------------|--7--7-7-7-7-7-7-7-7-7-7-7-7-7-7-|
--2----------------|---------------------------------|


                                                                     
--5-5-5-5-5-5-5-5-5-5-5-5-5-5-5-5-|--3--3-3-3-3-3-3-3-3-3-3-3-3-3-3-|
--5-5-5-5-5-5-5-5-5-5-5-5-5-5-5-5-|--3--3-3-3-3-3-3-3-3-3-3-3-3-3-3-|
--5-5-5-5-5-5-5-5-5-5-5-5-5-5-5-5-|--4--4-4-4-4-4-4-4-4-4-4-4-4-4-4-|
--5-5-5-5-5-5-5-5-5-5-5-5-5-5-5-5-|--5--5-5-5-5-5-5-5-5-5-5-5-5-5-5-|
--7-7-7-7-7-7-7-7-7-7-7-7-7-7-7-7-|--5--5-5-5-5-5-5-5-5-5-5-5-5-5-5-|
----------------------------------|---------------------------------|


                                                                     
--3-3-3-3-3-3-3-3-3-3-3-3-3-3-3-3-|--5--5-5-5-5-5-5-5-5-5-5-5-5-5-5-|
--3-3-3-3-3-3-3-3-3-3-3-3-3-3-3-3-|--5--5-5-5-5-5-5-5-5-5-5-5-5-5-5-|
--4-4-4-4-4-4-4-4-4-4-4-4-4-4-4-4-|--5--5-5-5-5-5-5-5-5-5-5-5-5-5-5-|
--5-5-5-5-5-5-5-5-5-5-5-5-5-5-5-5-|--3--3-3-3-3-3-3-3-3-3-3-3-3-3-3-|
--5-5-5-5-5-5-5-5-5-5-5-5-5-5-5-5-|---------------------------------|
----------------------------------|---------------------------------|


                                                                     
--5-5-5-5-5-5-5-5-5-5-5-5-5-5-5-5-|---------------------------------|
--5-5-5-5-5-5-5-5-5-5-5-5-5-5-5-5-|--8--8-8-8-8-8-8-8-8-8-8-8-8-8-8-|
--5-5-5-5-5-5-5-5-5-5-5-5-5-5-5-5-|--7--7-7-7-7-7-7-7-7-7-7-7-7-7-7-|
--3-3-3-3-3-3-3-3-3-3-3-3-3-3-3-3-|--9--9-9-9-9-9-9-9-9-9-9-9-9-9-9-|
----------------------------------|--7--7-7-7-7-7-7-7-7-7-7-7-7-7-7-|
----------------------------------|---------------------------------|


                                                                     
----------------------------------|--5--5-5-5-5-5-5-5-5-5-5-5-5-5-5-|
--8-8-8-8-8-8-8-8-8-8-8-8-8-8-8-8-|--5--5-5-5-5-5-5-5-5-5-5-5-5-5-5-|
--7-7-7-7-7-7-7-7-7-7-7-7-7-7-7-7-|--5--5-5-5-5-5-5-5-5-5-5-5-5-5-5-|
--9-9-9-9-9-9-9-9-9-9-9-9-9-9-9-9-|--5--5-5-5-5-5-5-5-5-5-5-5-5-5-5-|
--7-7-7-7-7-7-7-7-7-7-7-7-7-7-7-7-|--7--7-7-7-7-7-7-7-7-7-7-7-7-7-7-|
----------------------------------|---------------------------------|


                                                                     
--5-5-5-5-5-5-5-5-5-5-5-5-5-5-5-5-|--3--3-3-3-3-3-3-3-3-3-3-3-3-3-3-|
--5-5-5-5-5-5-5-5-5-5-5-5-5-5-5-5-|--3--3-3-3-3-3-3-3-3-3-3-3-3-3-3-|
--5-5-5-5-5-5-5-5-5-5-5-5-5-5-5-5-|--4--4-4-4-4-4-4-4-4-4-4-4-4-4-4-|
--5-5-5-5-5-5-5-5-5-5-5-5-5-5-5-5-|--5--5-5-5-5-5-5-5-5-5-5-5-5-5-5-|
--7-7-7-7-7-7-7-7-7-7-7-7-7-7-7-7-|--5--5-5-5-5-5-5-5-5-5-5-5-5-5-5-|
----------------------------------|---------------------------------|


                                                                     
--3-3-3-3-3-3-3-3-3-3-3-3-3-3-3-3-|--5--5-5-5-5-5-5-5-5-5-5-5-5-5-5-|
--3-3-3-3-3-3-3-3-3-3-3-3-3-3-3-3-|--5--5-5-5-5-5-5-5-5-5-5-5-5-5-5-|
--4-4-4-4-4-4-4-4-4-4-4-4-4-4-4-4-|--5--5-5-5-5-5-5-5-5-5-5-5-5-5-5-|
--5-5-5-5-5-5-5-5-5-5-5-5-5-5-5-5-|--3--3-3-3-3-3-3-3-3-3-3-3-3-3-3-|
--5-5-5-5-5-5-5-5-5-5-5-5-5-5-5-5-|---------------------------------|
----------------------------------|---------------------------------|


                                                                     
--5-5-5-5-5-5-5-5-5-5-5-5-5-5-5-5-|---------------------------------|
--5-5-5-5-5-5-5-5-5-5-5-5-5-5-5-5-|--8--8-8-8-8-8-8-8-8-8-8-8-8-8-8-|
--5-5-5-5-5-5-5-5-5-5-5-5-5-5-5-5-|--7--7-7-7-7-7-7-7-7-7-7-7-7-7-7-|
--3-3-3-3-3-3-3-3-3-3-3-3-3-3-3-3-|--9--9-9-9-9-9-9-9-9-9-9-9-9-9-9-|
----------------------------------|--7--7-7-7-7-7-7-7-7-7-7-7-7-7-7-|
----------------------------------|---------------------------------|


                                                                               
----------------------------------|----------------------|-----------0--------|
--8-8-8-8-8-8-8-8-8-8-8-8-8-8-8-8-|----------------------|-----------0--------|
--7-7-7-7-7-7-7-7-7-7-7-7-7-7-7-7-|--1---------2---------|--1--------1--------|
--9-9-9-9-9-9-9-9-9-9-9-9-9-9-9-9-|-------2---------3----|-----------2--------|
--7-7-7-7-7-7-7-7-7-7-7-7-7-7-7-7-|----------------------|--------------------|
----------------------------------|----------------------|--------------------|


                                                                     
----------------------|----------------------|----------------------|
----------------------|----------------------|----------------------|
--1---------2---------|--1-------------------|--1---------2---------|
-------2---------3----|-------2----3----0----|-------2---------3----|
----------------------|----------------------|----------------------|
----------------------|----------------------|----------------------|


                                                             
-----------1---------|--0----------------|------------------|
-----------0----0----|--0----------------|------------------|
--1--------1---------|--1----------------|------------------|
---------------------|--2----------------|------------------|
---------------------|-------------------|------------------|
---------------------|-------------------|------------------|


                                                                        
-----------------------|-----------------------|-----------------------|
-----------------------|-----------------------|-----------------------|
-----------------------|-----------------------|-----------------------|
--2----3----2--2--0----|--2----3----2--2--0----|--2----3----2--2--0----|
--2----3----2--2--0----|--2----3----2--2--0----|--2----3----2--2--0----|
--2----3----2--2--0----|--2----3----2--2--0----|--2----3----2--2--0----|


                                                                        
-----------------------|-----------------------|-----------------------|
-----------------------|-----------------------|-----------------------|
-----------------------|-----------------------|-----------------------|
--2----0----2--2--2----|--2----3----2--2--0----|--2----3----2--2--0----|
--2----0----2--2--2----|--2----3----2--2--0----|--2----3----2--2--0----|
--2----0----2--2--2----|--2----3----2--2--0----|--2----3----2--2--0----|


                                                                         
-----------------------|-----------------------|------------------------|
-----------------------|-----------------------|------------------------|
-----------------------|-----------------------|------------------------|
--2----3----2--2--0----|--2----0----2--2--2----|--2----0--2----2--2--2--|
--2----3----2--2--0----|--2----0----2--2--2----|--2----0--2----2--2--2--|
--2----3----2--2--0----|--2----0----2--2--2----|--2----0--2----2--2--2--|


                                                                      
------------------------|------------------------|-------------------|
------------------------|------------------------|-------------------|
------------------------|------------------------|-------------------|
--2----0--2----2--2--2--|--2----0--2----2--2--2--|--3----------------|
--2----0--2----2--2--2--|--2----0--2----2--2--2--|--3----------------|
--2----0--2----2--2--2--|--2----0--2----2--2--2--|--3----------------|


                                                                        
-----------------------|-----------------------|-----------------------|
-----------------------|-----------------------|-----------------------|
-----------------------|-----------------------|-----------------------|
--2----3----2--2--0----|--2----3----2--2--0----|--2----3----2--2--0----|
--2----3----2--2--0----|--2----3----2--2--0----|--2----3----2--2--0----|
--2----3----2--2--0----|--2----3----2--2--0----|--2----3----2--2--0----|


                          
------------------------||
------------------------||
------------------------||
--2----0----3--3--3--3--||
--2----0----3--3--3--3--||
--2----0----3--3--3--3--||

Guitar II

D#||------|------|------|------|------|------|------|------|------|------|
A#||------|------|------|------|------|------|------|------|------|------|
F#||------|------|------|------|------|------|------|------|------|------|
C#||------|------|------|------|------|------|------|------|------|------|
G#||------|------|------|------|------|------|------|------|------|------|
C#||------|------|------|------|------|------|------|------|------|------|


                                                                       
------|------|------|------|------|------|------|------------5--------|
------|------|------|------|------|------|------|---------5-----------|
------|------|------|------|------|------|------|--4------------------|
------|------|------|------|------|------|------|---------------------|
------|------|------|------|------|------|------|---------------------|
------|------|------|------|------|------|------|---------------------|


                                                                   
-------5--------------|--5--------------5----|-------5------------|
------------5---------|--5---------5---------|--------------------|
--4--------------4----|--4----4--------------|--4-----------------|
----------------------|----------------------|--------------------|
----------------------|----------------------|--------------------|
----------------------|----------------------|--------------------|


                                                                 
-------4----5--------|--7---------5--------|--5------------5----|
--0------------------|-------0-------------|--------------------|
---------------------|---------------------|--------------------|
---------------------|---------------------|--------------------|
---------------------|---------------------|--------------------|
---------------------|---------------------|--------------------|


                                                                  
-------4----5--------|--7---------5--------|-------4----5--------|
--0------------------|-------0-------------|--0------------------|
---------------------|---------------------|---------------------|
---------------------|---------------------|---------------------|
---------------------|---------------------|---------------------|
---------------------|---------------------|---------------------|


                                                               
--7----------------|------------------|-----------------------|
-------------------|------------------|-----------------------|
-------------------|------------------|-----------------------|
-------------------|------------------|--2----3----2--2--0----|
-------------------|------------------|--2----3----2--2--0----|
-------------------|------------------|--2----3----2--2--0----|


                                                                            
-------------------------|-----------------------|-------------------------|
-------------------------|-----------------------|-------------------------|
-------------------------|-----------------------|-------------------------|
--2----x--2--x--2--2--2--|--2----3----2--2--0----|--2----x--2--x--2--2--2--|
--2----x--2--x--2--2--2--|--2----3----2--2--0----|--2----x--2--x--2--2--2--|
--2----x--2--x--2--2--2--|--2----3----2--2--0----|--2----x--2--x--2--2--2--|


                                                                          
-----------------------|-------------------------|-----------------------|
-----------------------|-------------------------|-----------------------|
-----------------------|-------------------------|-----------------------|
--2----3----2--2--0----|--2----x--2--x--2--2--2--|--2----3----2--2--0----|
--2----3----2--2--0----|--2----x--2--x--2--2--2--|--2----3----2--2--0----|
--2----3----2--2--0----|--2----x--2--x--2--2--2--|--2----3----2--2--0----|


                                                                   
----------------------|-------4----5--------|--7---------5--------|
----------------------|--0------------------|-------0-------------|
----------------------|---------------------|---------------------|
--2--------2--2--2----|---------------------|---------------------|
--2--------2--2--2----|---------------------|---------------------|
--2--------2--2--2----|---------------------|---------------------|


                                                                 
--5------------5----|-------4----5--------|--7---------5--------|
--------------------|--0------------------|-------0-------------|
--------------------|---------------------|---------------------|
--------------------|---------------------|---------------------|
--------------------|---------------------|---------------------|
--------------------|---------------------|---------------------|


                                                             
-------4----5--------|--7----------------|------------------|
--0------------------|-------------------|------------------|
---------------------|-------------------|------------------|
---------------------|-------------------|------------------|
---------------------|-------------------|------------------|
---------------------|-------------------|------------------|


                                                                          
-----------------------|-------------------------|-----------------------|
-----------------------|-------------------------|-----------------------|
-----------------------|-------------------------|-----------------------|
--2----3----2--2--0----|--2----x--2--x--2--2--2--|--2----3----2--2--0----|
--2----3----2--2--0----|--2----x--2--x--2--2--2--|--2----3----2--2--0----|
--2----3----2--2--0----|--2----x--2--x--2--2--2--|--2----3----2--2--0----|


                                                                            
-------------------------|-----------------------|-------------------------|
-------------------------|-----------------------|-------------------------|
-------------------------|-----------------------|-------------------------|
--2----x--2--x--2--2--2--|--2----3----2--2--0----|--2----x--2--x--2--2--2--|
--2----x--2--x--2--2--2--|--2----3----2--2--0----|--2----x--2--x--2--2--2--|
--2----x--2--x--2--2--2--|--2----3----2--2--0----|--2----x--2--x--2--2--2--|


                                                                     
-----------------------|----------------------|------------5--------|
-----------------------|----------------------|---------5-----------|
-----------------------|----------------------|--4------------------|
--2----3----2--2--0----|--2--------2--2-------|---------------------|
--2----3----2--2--0----|--2--------2--2--2----|---------------------|
--2----3----2--2--0----|--2--------2--2--2----|---------------------|


                                                                   
-------5--------------|--5--------------5----|-------5------------|
------------5---------|--5---------5---------|--------------------|
--4--------------4----|--4----4--------------|--4-----------------|
----------------------|----------------------|--------------------|
----------------------|----------------------|--------------------|
----------------------|----------------------|--------------------|


                                                                      
----------------------------------|----------------------------------|
----------------------------------|----------------------------------|
----------------------------------|----------------------------------|
--7-7-7-7-7-7-7-7-7-7-7-7-7-7-7-7-|--7-7-7-7-7-7-7-7-7-7-7-7-7-7-7-7-|
--7-7-7-7-7-7-7-7-7-7-7-7-7-7-7-7-|--7-7-7-7-7-7-7-7-7-7-7-7-7-7-7-7-|
--7-7-7-7-7-7-7-7-7-7-7-7-7-7-7-7-|--7-7-7-7-7-7-7-7-7-7-7-7-7-7-7-7-|


                                                                      
----------------------------------|----------------------------------|
----------------------------------|----------------------------------|
----------------------------------|----------------------------------|
--5-5-5-5-5-5-5-5-5-5-5-5-5-5-5-5-|--5-5-5-5-5-5-5-5-5-5-5-5-5-5-5-5-|
--5-5-5-5-5-5-5-5-5-5-5-5-5-5-5-5-|--5-5-5-5-5-5-5-5-5-5-5-5-5-5-5-5-|
--5-5-5-5-5-5-5-5-5-5-5-5-5-5-5-5-|--5-5-5-5-5-5-5-5-5-5-5-5-5-5-5-5-|


                                                                      
----------------------------------|----------------------------------|
----------------------------------|----------------------------------|
----------------------------------|----------------------------------|
--3-3-3-3-3-3-3-3-3-3-3-3-3-3-3-3-|--3-3-3-3-3-3-3-3-3-3-3-3-3-3-3-3-|
--3-3-3-3-3-3-3-3-3-3-3-3-3-3-3-3-|--3-3-3-3-3-3-3-3-3-3-3-3-3-3-3-3-|
--3-3-3-3-3-3-3-3-3-3-3-3-3-3-3-3-|--3-3-3-3-3-3-3-3-3-3-3-3-3-3-3-3-|


                                                                      
----------------------------------|----------------------------------|
----------------------------------|----------------------------------|
----------------------------------|----------------------------------|
--2-2-2-2-2-2-2-2-2-2-2-2-2-2-2-2-|--2-2-2-2-2-2-2-2-2-2-2-2-2-2-2-2-|
--2-2-2-2-2-2-2-2-2-2-2-2-2-2-2-2-|--2-2-2-2-2-2-2-2-2-2-2-2-2-2-2-2-|
--2-2-2-2-2-2-2-2-2-2-2-2-2-2-2-2-|--2-2-2-2-2-2-2-2-2-2-2-2-2-2-2-2-|


                                                                      
-------------------|------------------------|------------------------|
-------------------|------------------------|------------------------|
-------------------|------------------------|------------------------|
--7----------------|--2----0----x--x--x--x--|--2----0----x--x--x--x--|
--7----------------|--2----0----x--x--x--x--|--2----0----x--x--x--x--|
--7----------------|--2----0----x--x--x--x--|--2----0----x--x--x--x--|


                                                                        
------------------------|---------------------|------------------------|
------------------------|---------------------|------------------------|
------------------------|---------------------|------------------------|
--2----0----x--x--x--x--|--2--------7----5----|--2----0----x--x--x--x--|
--2----0----x--x--x--x--|--2--------7----5----|--2----0----x--x--x--x--|
--2----0----x--x--x--x--|--2--------7----5----|--2----0----x--x--x--x--|


                                                                        
------------------------|------------------------|---------------------|
------------------------|------------------------|---------------------|
------------------------|------------------------|---------------------|
--2----0----x--x--x--x--|--2----0----x--x--x--x--|--2--------7----5----|
--2----0----x--x--x--x--|--2----0----x--x--x--x--|--2--------7----5----|
--2----0----x--x--x--x--|--2----0----x--x--x--x--|--2--------7----5----|


                                                                           
------------------------|------------------------|------------------------|
------------------------|------------------------|------------------------|
------------------------|------------------------|------------------------|
--2----0----x--x--x--x--|--2----0----x--x--x--x--|--2----0----x--x--x--x--|
--2----0----x--x--x--x--|--2----0----x--x--x--x--|--2----0----x--x--x--x--|
--2----0----x--x--x--x--|--2----0----x--x--x--x--|--2----0----x--x--x--x--|


                                                                        
---------------------|------------------------|------------------------|
---------------------|------------------------|------------------------|
---------------------|------------------------|------------------------|
--2--------7----5----|--2----0--2----2--2--2--|--2----0--2----2--2--2--|
--2--------7----5----|--2----0--2----2--2--2--|--2----0--2----2--2--2--|
--2--------7----5----|--2----0--2----2--2--2--|--2----0--2----2--2--2--|


                                                                      
------------------------|--------------------|-----------------------|
------------------------|--------------------|-----------------------|
------------------------|--------------------|-----------------------|
--2----0--2----2--2--2--|--2--------4--------|--2----3----2--2--0----|
--2----0--2----2--2--2--|--2--------4--------|--2----3----2--2--0----|
--2----0--2----2--2--2--|--2--------4--------|--2----3----2--2--0----|


                                                                        
-----------------------|-----------------------|-----------------------|
-----------------------|-----------------------|-----------------------|
-----------------------|-----------------------|-----------------------|
--2----3----2--2--0----|--2----3----2--2--0----|--2----0----2--2--2----|
--2----3----2--2--0----|--2----3----2--2--0----|--2----0----2--2--2----|
--2----3----2--2--0----|--2----3----2--2--0----|--2----0----2--2--2----|


                                                                        
-----------------------|-----------------------|-----------------------|
-----------------------|-----------------------|-----------------------|
-----------------------|-----------------------|-----------------------|
--2----3----2--2--0----|--2----3----2--2--0----|--2----3----2--2--0----|
--2----3----2--2--0----|--2----3----2--2--0----|--2----3----2--2--0----|
--2----3----2--2--0----|--2----3----2--2--0----|--2----3----2--2--0----|


                                                       
-------------------|----------------------------------|
-------------------|----------------------------------|
-------------------|----------------------------------|
--2----------------|--7-7-7-7-7-7-7-7-7-7-7-7-7-7-7-7-|
--2----------------|--7-7-7-7-7-7-7-7-7-7-7-7-7-7-7-7-|
--2----------------|--7-7-7-7-7-7-7-7-7-7-7-7-7-7-7-7-|


                                                                      
----------------------------------|----------------------------------|
----------------------------------|----------------------------------|
----------------------------------|----------------------------------|
--7-7-7-7-7-7-7-7-7-7-7-7-7-7-7-7-|--5-5-5-5-5-5-5-5-5-5-5-5-5-5-5-5-|
--7-7-7-7-7-7-7-7-7-7-7-7-7-7-7-7-|--5-5-5-5-5-5-5-5-5-5-5-5-5-5-5-5-|
--7-7-7-7-7-7-7-7-7-7-7-7-7-7-7-7-|--5-5-5-5-5-5-5-5-5-5-5-5-5-5-5-5-|


                                                                      
----------------------------------|----------------------------------|
----------------------------------|----------------------------------|
----------------------------------|----------------------------------|
--5-5-5-5-5-5-5-5-5-5-5-5-5-5-5-5-|--3-3-3-3-3-3-3-3-3-3-3-3-3-3-3-3-|
--5-5-5-5-5-5-5-5-5-5-5-5-5-5-5-5-|--3-3-3-3-3-3-3-3-3-3-3-3-3-3-3-3-|
--5-5-5-5-5-5-5-5-5-5-5-5-5-5-5-5-|--3-3-3-3-3-3-3-3-3-3-3-3-3-3-3-3-|


                                                                      
----------------------------------|----------------------------------|
----------------------------------|----------------------------------|
----------------------------------|----------------------------------|
--3-3-3-3-3-3-3-3-3-3-3-3-3-3-3-3-|--2-2-2-2-2-2-2-2-2-2-2-2-2-2-2-2-|
--3-3-3-3-3-3-3-3-3-3-3-3-3-3-3-3-|--2-2-2-2-2-2-2-2-2-2-2-2-2-2-2-2-|
--3-3-3-3-3-3-3-3-3-3-3-3-3-3-3-3-|--2-2-2-2-2-2-2-2-2-2-2-2-2-2-2-2-|


                                                                      
----------------------------------|----------------------------------|
----------------------------------|----------------------------------|
----------------------------------|----------------------------------|
--2-2-2-2-2-2-2-2-2-2-2-2-2-2-2-2-|--7-7-7-7-7-7-7-7-7-7-7-7-7-7-7-7-|
--2-2-2-2-2-2-2-2-2-2-2-2-2-2-2-2-|--7-7-7-7-7-7-7-7-7-7-7-7-7-7-7-7-|
--2-2-2-2-2-2-2-2-2-2-2-2-2-2-2-2-|--7-7-7-7-7-7-7-7-7-7-7-7-7-7-7-7-|


                                                                      
----------------------------------|----------------------------------|
----------------------------------|----------------------------------|
----------------------------------|----------------------------------|
--7-7-7-7-7-7-7-7-7-7-7-7-7-7-7-7-|--5-5-5-5-5-5-5-5-5-5-5-5-5-5-5-5-|
--7-7-7-7-7-7-7-7-7-7-7-7-7-7-7-7-|--5-5-5-5-5-5-5-5-5-5-5-5-5-5-5-5-|
--7-7-7-7-7-7-7-7-7-7-7-7-7-7-7-7-|--5-5-5-5-5-5-5-5-5-5-5-5-5-5-5-5-|


                                                                      
----------------------------------|----------------------------------|
----------------------------------|----------------------------------|
----------------------------------|----------------------------------|
--5-5-5-5-5-5-5-5-5-5-5-5-5-5-5-5-|--3-3-3-3-3-3-3-3-3-3-3-3-3-3-3-3-|
--5-5-5-5-5-5-5-5-5-5-5-5-5-5-5-5-|--3-3-3-3-3-3-3-3-3-3-3-3-3-3-3-3-|
--5-5-5-5-5-5-5-5-5-5-5-5-5-5-5-5-|--3-3-3-3-3-3-3-3-3-3-3-3-3-3-3-3-|


                                                                      
----------------------------------|----------------------------------|
----------------------------------|----------------------------------|
----------------------------------|----------------------------------|
--3-3-3-3-3-3-3-3-3-3-3-3-3-3-3-3-|--2-2-2-2-2-2-2-2-2-2-2-2-2-2-2-2-|
--3-3-3-3-3-3-3-3-3-3-3-3-3-3-3-3-|--2-2-2-2-2-2-2-2-2-2-2-2-2-2-2-2-|
--3-3-3-3-3-3-3-3-3-3-3-3-3-3-3-3-|--2-2-2-2-2-2-2-2-2-2-2-2-2-2-2-2-|


                                                                                
----------------------------------|------------5--------|-------5--------------|
----------------------------------|---------5-----------|------------5---------|
----------------------------------|--4------------------|--4--------------4----|
--2-2-2-2-2-2-2-2-2-2-2-2-2-2-2-2-|---------------------|----------------------|
--2-2-2-2-2-2-2-2-2-2-2-2-2-2-2-2-|---------------------|----------------------|
--2-2-2-2-2-2-2-2-2-2-2-2-2-2-2-2-|---------------------|----------------------|


                                                                     
--5--------------5----|------------5---------|-------5--------------|
--5---------5---------|-------5---------5----|------------5---------|
--4----4--------------|--4-------------------|--4--------------4----|
----------------------|----------------------|----------------------|
----------------------|----------------------|----------------------|
----------------------|----------------------|----------------------|


                                                            
--5------------------|------------------|------------------|
-------5-------------|------------------|------------------|
------------4--------|------------------|------------------|
---------------------|------------------|------------------|
---------------------|------------------|------------------|
---------------------|------------------|------------------|


                                                                        
-----------------------|-----------------------|-----------------------|
-----------------------|-----------------------|-----------------------|
-----------------------|-----------------------|-----------------------|
--2----3----2--2--0----|--2----3----2--2--0----|--2----3----2--2--0----|
--2----3----2--2--0----|--2----3----2--2--0----|--2----3----2--2--0----|
--2----3----2--2--0----|--2----3----2--2--0----|--2----3----2--2--0----|


                                                                        
-----------------------|-----------------------|-----------------------|
-----------------------|-----------------------|-----------------------|
-----------------------|-----------------------|-----------------------|
--2----0----2--2--2----|--2----3----2--2--0----|--2----3----2--2--0----|
--2----0----2--2--2----|--2----3----2--2--0----|--2----3----2--2--0----|
--2----0----2--2--2----|--2----3----2--2--0----|--2----3----2--2--0----|


                                                                         
-----------------------|-----------------------|------------------------|
-----------------------|-----------------------|------------------------|
-----------------------|-----------------------|------------------------|
--2----3----2--2--0----|--2----0----2--2--2----|--2----0--2----2--2--2--|
--2----3----2--2--0----|--2----0----2--2--2----|--2----0--2----2--2--2--|
--2----3----2--2--0----|--2----0----2--2--2----|--2----0--2----2--2--2--|


                                                                      
------------------------|------------------------|-------------------|
------------------------|------------------------|-------------------|
------------------------|------------------------|-------------------|
--2----0--2----2--2--2--|--2----0--2----2--2--2--|--3----------------|
--2----0--2----2--2--2--|--2----0--2----2--2--2--|--3----------------|
--2----0--2----2--2--2--|--2----0--2----2--2--2--|--3----------------|


                                                                        
-----------------------|-----------------------|-----------------------|
-----------------------|-----------------------|-----------------------|
-----------------------|-----------------------|-----------------------|
--2----3----2--2--0----|--2----3----2--2--0----|--2----3----2--2--0----|
--2----3----2--2--0----|--2----3----2--2--0----|--2----3----2--2--0----|
--2----3----2--2--0----|--2----3----2--2--0----|--2----3----2--2--0----|


                          
------------------------||
------------------------||
------------------------||
--2----0----3--3--3--3--||
--2----0----3--3--3--3--||
--2----0----3--3--3--3--||





comments
print report bad tab
1 comment total.
0 reply
MarowLan wrote on June 1 2008, 01:37 pm

this tab is way way off. it's not even close to being correct. i can't believe that someone would give this tab a good rating.

I want to post or [tab]
guest
You may want to rate the tab now too:
select rating
Please do not post tabs as comments. Select "correction" instead!