Oops, an error
Loading. Please wait.

Shokubeni Tab

ver2
ver2

Whole song

Interactive

More versions @911Tabs.com
1,038 views 1 this week
no commentswrite comment
1 2 3 4 5
please rate
Autoscroll
+/-
esc
set tempo
stop
Contributor
Difficulty
Tuning
intermediate
D A D G B E
Hey! There's an official Ultimate Guitar app which is ideal
for learning songs when you're away from computer. Get the app
WARNING: You are trying to view
                                    content from Ultimate-Guitar.com
                                    in an unauthorized application,
                                    which is prohibited.

                                    Please use an official Ultimate
                                    Guitar Tabs application for iPhone,
                                    iPad or Android to access legitimate
                                    chords, guitar, bass, and drum tabs
                                    from Ultimate-Guitar.com database.

                                    Type "ultimate guitar tabs" in Apple
                                    App Store's or Android Market's
                                    search to find the application.
                             Shokubeni                                     


                                                                     Dir en grey
Kaoru



     PM PM  PM PM PM PM PM PM     PM PM                
     E  E   E  E  E  E  E  E      E  E  Q    H         
E||----------------------------|----------------------|
B||----------------------------|----------------------|
G||----------------------------|----------------------|
D||----------------------------|----------------------|
A||----------------------------|----------------------|
D||--0--1p--0--0--5--0--0--1h--|--0--0----------------|


    E  E   E  E  E   E  E  E      E  Q    E  E  E  E  E   
|------------------------------|-------------------------|
|------------------------------|-------------------------|
|*-----------------------------|-------------------------|
|*---------------1p--0---------|-------------------------|
|------------------------------|-------------------------|
|---0--1p--0--0---------0--1h--|--0--0----1--0--3--1--0--|


  E  E   E  E  E   E  E  E      E  Q    E  E  E  E  E     
-----------------------------|--------------------------||
-----------------------------|--------------------------||
-----------------------------|-------------------------*||
---------------1p--0---------|-------------------------*||
-----------------------------|--------------------------||
--0--1p--0--0---------0--1h--|--0--0----1--0--3--1--0---||


                            PM PM  PM PM PM  PM PM PM   
  E  E  E  E  E  E  Q       E  E   E  E  E   E  E  E    
-------------------------|-----------------------------|
-------------------------|-----------------------------|
-------------------------|-----------------------------|
-------------------------|-----------------------------|
-------------------------|-----------------------------|
--0--0--0--1--1--3-------|--0--1p--0--0--5p--0--0--1h--|


  PM PM   PM  PM PM PM PM    PM PM  PM PM PM PM PM PM   
  E  Q    E   E  E  E  E     E  E   E  E  E  E  E  E    
--------------------------|----------------------------|
--------------------------|----------------------------|
--------------------------|----------------------------|
--------------------------|----------------------------|
--------------------------|----------------------------|
--0--0----1p--0--3--1--0--|--0--1p--0--0--5--0--0--1h--|


  PM PM   PM PM PM                                               
  E  Q    E  E  E  Q       W                   W                 
------------------------|-------------------|-------------------|
------------------------|-------------------|-------------------|
------------------------|-------------------|-------------------|
------------------------|-------------------|-------------------|
-------------0--0-------|-------------------|-------------------|
--0--0----0--0--0-------|-------------------|-------------------|


  W                   W                   W                   W                 
-------------------|-------------------|-------------------|-------------------|
-------------------|-------------------|-------------------|-------------------|
-------------------|-------------------|-------------------|-------------------|
-------------------|-------------------|-------------------|-------------------|
-------------------|-------------------|-------------------|-------------------|
-------------------|-------------------|-------------------|-------------------|


                      Arp.            Phaser, Flange etc.                       
  W                   Q     H         Q                      H        H         
-------------------|--------------------------------------|--5-----------------|
-------------------|--------------------------------------|-----------6--------|
-------------------|-------(7)----------------------------|--------------------|
-------------------|------------------7-------------------|--------------------|
-------------------|--------------------------------------|--------------------|
-------------------|--------------------------------------|--------------------|


  Q     H         Q       H        H           H        Q    Q     
-----------------------|--6-----------------|---------------------|
--L--------------------|-----------8--------|--L--------8---------|
------------------7----|--------------------|---------------------|
-------(7)-------------|--------------------|----------------7----|
-----------------------|--------------------|---------------------|
-----------------------|--------------------|---------------------|


  H        H           Q     H         Q       W                 
--------------------|-------(5)-------------|-------------------|
--8--------5--------|--L--------------------|-------------------|
--------------------|------------------6----|--7----------------|
--------------------|-----------------------|-------------------|
--------------------|-----------------------|-------------------|
--------------------|-----------------------|-------------------|


  W                   E  E   E  E  E   E  E  E      E  Q    E  E  E  E  E   
-------------------|-----------------------------|-------------------------|
-------------------|-----------------------------|-------------------------|
--L----------------|-----------------------------|-------------------------|
-------------------|---------------1p--0---------|-------------------------|
-------------------|-----------------------------|-------------------------|
-------------------|--0--1p--0--0---------0--1h--|--0--0----1--0--3--1--0--|


  E  E   E  E  E   E  E  E      E  Q    E  E  E  E  E   
-----------------------------|-------------------------|
-----------------------------|-------------------------|
-----------------------------|-------------------------|
---------------1p--0---------|-------------------------|
-----------------------------|-------------------------|
--0--1p--0--0---------0--1h--|--0--0----1--0--3--1--0--|


  E  E   E  E  E   E  E  E      E  Q    E  E  E  E  E   
-----------------------------|-------------------------|
-----------------------------|-------------------------|
-----------------------------|-------------------------|
---------------1p--0---------|-------------------------|
-----------------------------|-------------------------|
--0--1p--0--0---------0--1h--|--0--0----1--0--3--1--0--|


  E  E   E  E  E   E  E  E      E  E   Q    Q    Q       H        Q    E  E   
-----------------------------|------------------------|----------------------|
-----------------------------|------------------------|----------------------|
-----------------------------|------------------------|----------------------|
---------------1p--0---------|------------------------|----------------------|
-----------------------------|--------10----7---------|--0--------0----0--0--|
--0--1p--0--0---------5--1h--|--0--0---8----7---------|--0--------0----0--0--|


  Q    Q    Q    E  E     H        Q    E  E     Q    Q    Q    E  E   
-----------------------|----------------------|-----------------------|
-----------------------|----------------------|-----------------------|
-----------------------|----------------------|-----------------------|
-----------------------|----------------------|-----------------------|
--L----0----0----0--0--|--3--------3----3--3--|--L----3----3----3--3--|
--L----0----0----0--0--|--3--------3----3--3--|--L----3----3----3--3--|


  H        Q    E  E     Q    Q    Q    E  E     H        Q    E  E   
----------------------|-----------------------|----------------------|
----------------------|-----------------------|----------------------|
----------------------|-----------------------|----------------------|
----------------------|-----------------------|--2--------2----2--2--|
--5--------5----5--5--|--L----5----5----5--5--|--3--------3----3--3--|
--5--------5----5--5--|--L----5----5----5--5--|----------------------|


  H        Q    E  E     H        Q    E  E     Q    Q    Q    E  E   
----------------------|----------------------|-----------------------|
----------------------|----------------------|-----------------------|
----------------------|----------------------|-----------------------|
--7--------7----7--7--|----------------------|-----------------------|
--8--------8----8--8--|--0--------0----0--0--|--L----0----0----0--0--|
--7--------7----7--7--|--0--------0----0--0--|--L----0----0----0--0--|


  H        Q    E  E     Q    Q    Q    E  E     H        Q    E  E   
----------------------|-----------------------|----------------------|
----------------------|-----------------------|----------------------|
----------------------|-----------------------|----------------------|
----------------------|-----------------------|----------------------|
--3--------3----3--3--|--L----3----3----3--3--|--5--------5----5--5--|
--3--------3----3--3--|--L----3----3----3--3--|--5--------5----5--5--|


  Q    Q    Q    E  E     H        Q    E  E     H        Q    E  E   
-----------------------|----------------------|----------------------|
-----------------------|----------------------|----------------------|
-----------------------|----------------------|----------------------|
-----------------------|--2--------2----2--2--|--7--------7----7--7--|
--L----5----5----5--5--|--3--------3----3--3--|--8--------8----8--8--|
--L----5----5----5--5--|----------------------|--7--------7----7--7--|


  PM PM  PM PM   PM PM PM PM     PM PM                                    
  E  E   E  E    E  E  E  E      E  E  Q    H           W                 
------------------------------|----------------------|-------------------|
------------------------------|----------------------|-------------------|
------------------------------|----------------------|-------------------|
------------------------------|----------------------|-------------------|
------------------------------|----------------------|-------------------|
--0--1p--0--0--5g5--0--0--1h--|--0--0----------------|-------------------|


                      PM PM  PM PM   PM PM PM PM     PM PM                
  W                   E  E   E  E    E  E  E  E      E  E  Q    H         
-------------------|------------------------------|----------------------|
-------------------|------------------------------|----------------------|
-------------------|------------------------------|----------------------|
-------------------|------------------------------|----------------------|
-------------------|------------------------------|----------------------|
-------------------|--0--1p--0--0--5g5--0--0--1h--|--0--0----------------|


                                          PM PM  PM PM   PM PM PM PM   
  W                   W                   E  E   E  E    E  E  E  E    
-------------------|-------------------|------------------------------|
-------------------|-------------------|------------------------------|
-------------------|-------------------|------------------------------|
-------------------|-------------------|------------------------------|
-------------------|-------------------|------------------------------|
-------------------|-------------------|--0--1p--0--0--5g5--0--0--1h--|


  PM PM                                                        
  E  E  Q    H           W                   W                 
----------------------|-------------------|-------------------|
----------------------|-------------------|-------------------|
----------------------|-------------------|-------------------|
----------------------|-------------------|-------------------|
----------------------|-------------------|-------------------|
--0--0----------------|-------------------|-------------------|


  PM PM  PM PM   PM PM PM PM     PM PM                            
  E  E   E  E    E  E  E  E      E  E  Q    H                     
------------------------------|----------------------|-----|-----|
------------------------------|----------------------|-----|-----|
------------------------------|----------------------|-----|-----|
------------------------------|----------------------|-----|-----|
------------------------------|----------------------|-----|-----|
--0--1p--0--0--5g5--0--0--1h--|--0--0----------------|-----|-----|


    PM PM  PM PM   PM PM PM PM     PM PM   PM PM PM PM PM  
    E  E   E  E    E  E  E  E      E  Q    E  E  E  E  E   
|-------------------------------|-------------------------|
|-------------------------------|-------------------------|
|*------------------------------|-------------------------|
|*------------------------------|-------------------------|
|-------------------------------|-------------------------|
|---0--1p--0--0--5g5--0--0--1h--|--0--0----1--0--3--1--0--|


  PM PM  PM PM   PM PM PM PM     PM PM                  
  E  E   E  E    E  E  E  E      E  E  Q    H           
------------------------------|-----------------------||
------------------------------|-----------------------||
------------------------------|----------------------*||
------------------------------|----------------------*||
------------------------------|-----------------------||
--0--1p--0--0--5g5--0--0--1h--|--0--0-----------------||


  PM PM   PM PM PM                                                  
  E  Q    E  E  E  Q         H        E   E  E  E      E  E  E  E   
------------------------||--------------------------|--------------|
------------------------||--------------------------|--------------|
------------------------||*-------------------------|--------------|
------------------------||*-------------------------|--------------|
------------------------||---0----------------------|--------------|
--0--0----0--0--0-------||---0--------1p--0--0--1h--|--0--0--1--3--|


  H        E   E  E  E      E  E  E  E     H        E   E  E  E    
-------------------------|--------------|-------------------------|
-------------------------|--------------|-------------------------|
-------------------------|--------------|-------------------------|
-------------------------|--------------|-------------------------|
--0----------------------|--------------|--0----------------------|
--0--------1p--0--0--1h--|--0--0--1--3--|--0--------1p--0--0--1h--|


                                                 PM PM    
  E  E  E  E     H        E   E  E  E      E  E  E  E     
--------------|-------------------------|---------------||
--------------|-------------------------|---------------||
--------------|-------------------------|--------------*||
--------------|-------------------------|--------------*||
--------------|--0----------------------|---------------||
--0--0--1--3--|--0--------1p--0--0--1h--|--0--0--1--3---||


                              PM PM PM PM                                       
  H        E   E  E  E     E  E  E  E  E  Q.        E  E   E  E  E   E  E  E    
------------------------|------------------------|-----------------------------|
------------------------|------------------------|-----------------------------|
------------------------|------------------------|-----------------------------|
------------------------|------------------------|---------------1p--0---------|
--0------------------3--|--L--------------1------|-----------------------------|
--0--------1p--0--0--3--|--L--3--3--3--3--1------|--0--1p--0--0---------0--1h--|


  E  Q    E  E  E  E  E     E  E   E  E  E   E  E  E    
-------------------------|-----------------------------|
-------------------------|-----------------------------|
-------------------------|-----------------------------|
-------------------------|---------------1p--0---------|
-------------------------|-----------------------------|
--0--0----1--0--3--1--0--|--0--1p--0--0---------0--1h--|


  E  Q    E  E  E  E  E     E  E   E  E  E   E  E  E    
-------------------------|-----------------------------|
-------------------------|-----------------------------|
-------------------------|-----------------------------|
-------------------------|---------------1p--0---------|
-------------------------|-----------------------------|
--0--0----1--0--3--1--0--|--0--1p--0--0---------0--1h--|


  E  Q    E  E  E  E  E     E  E   E  E  E   E  E  E    
-------------------------|-----------------------------|
-------------------------|-----------------------------|
-------------------------|-----------------------------|
-------------------------|---------------1p--0---------|
-------------------------|-----------------------------|
--0--0----1--0--3--1--0--|--0--1p--0--0---------0--1h--|


  E  Q    E  E  E  Q       E  E   E  E  E   E  E  E    
------------------------|-----------------------------|
------------------------|-----------------------------|
------------------------|-----------------------------|
------------------------|---------------1p--0---------|
------------------------|-----------------------------|
--0--0----1--0--3-------|--0--1p--0--0---------0--1h--|


  E  Q    E  E  E  E  E     E  E   E  E  E   E  E  E    
-------------------------|-----------------------------|
-------------------------|-----------------------------|
-------------------------|-----------------------------|
-------------------------|---------------1p--0---------|
-------------------------|-----------------------------|
--0--0----1--0--3--1--0--|--0--1p--0--0---------0--1h--|


  E  Q    E  E  E  E  E     E  E   E  E  E   E  E  E    
-------------------------|-----------------------------|
-------------------------|-----------------------------|
-------------------------|-----------------------------|
-------------------------|---------------1p--0---------|
-------------------------|-----------------------------|
--0--0----1--0--3--1--0--|--0--1p--0--0---------0--1h--|


  E  Q    E  E  E  E  E     E  E   E  E  E   E  E    E    
-------------------------|-------------------------------|
-------------------------|-------------------------------|
-------------------------|-------------------------------|
-------------------------|---------------1p--0-----------|
-------------------------|-------------------------------|
--0--0----1--0--3--1--0--|--0--1p--0--0---------0--5g5h--|


  E  E  Q    E  E  Q                                                           
------------------------|-----|-----|-----|-----|-----|-----|-----|-----|-----|
------------------------|-----|-----|-----|-----|-----|-----|-----|-----|-----|
------------------------|-----|-----|-----|-----|-----|-----|-----|-----|-----|
------------------------|-----|-----|-----|-----|-----|-----|-----|-----|-----|
--------8----7--7-------|-----|-----|-----|-----|-----|-----|-----|-----|-----|
--0--0--8----7--7-------|-----|-----|-----|-----|-----|-----|-----|-----|-----|


                                                  H        H         
-----|-----|-----|-----|-----|-----|-----|-----|--------------------|
-----|-----|-----|-----|-----|-----|-----|-----|--------------------|
-----|-----|-----|-----|-----|-----|-----|-----|--------------------|
-----|-----|-----|-----|-----|-----|-----|-----|--------------------|
-----|-----|-----|-----|-----|-----|-----|-----|--7--------7--------|
-----|-----|-----|-----|-----|-----|-----|-----|--7--------7--------|


  E  E   E  E  E   E  E  E      E  Q    E  E  E  E  E   
-----------------------------|-------------------------|
-----------------------------|-------------------------|
-----------------------------|-------------------------|
---------------1p--0---------|-------------------------|
-----------------------------|-------------------------|
--0--1p--0--0---------0--1h--|--0--0----1--0--3--1--0--|


  E  E   E  E  E   E  E  E      E  Q    E  E  E  E  E   
-----------------------------|-------------------------|
-----------------------------|-------------------------|
-----------------------------|-------------------------|
---------------1p--0---------|-------------------------|
-----------------------------|-------------------------|
--0--1p--0--0---------0--1h--|--0--0----1--0--3--1--0--|


  E  E   E  E  E   E  E  E      E  Q    E  E  E  E  E   
-----------------------------|-------------------------|
-----------------------------|-------------------------|
-----------------------------|-------------------------|
---------------1p--0---------|-------------------------|
-----------------------------|-------------------------|
--0--1p--0--0---------0--1h--|--0--0----1--0--3--1--0--|


  E  E   E  E  E   E  E  E      E  Q    E  E  E  Q     
-----------------------------|------------------------|
-----------------------------|------------------------|
-----------------------------|------------------------|
---------------1p--0---------|------------------------|
-----------------------------|------------------------|
--0--1p--0--0---------5--1h--|--0--0----1--0--3-------|


  PM PM  PM PM   PM  PM PM PM     PM PM   PM PM PM PM PM  
  E  E   E  E    E   E  E  E      E  Q    E  E  E  E  E   
-------------------------------|-------------------------|
-------------------------------|-------------------------|
-------------------------------|-------------------------|
-------------------------------|-------------------------|
-------------------------------|-------------------------|
--0--1p--0--0--5g5p--0--0--1h--|--0--0----1--0--3--1--0--|


  PM PM  PM PM   PM  PM PM PM     PM PM   PM PM PM PM PM  
  E  E   E  E    E   E  E  E      E  Q    E  E  E  E  E   
-------------------------------|-------------------------|
-------------------------------|-------------------------|
-------------------------------|-------------------------|
-------------------------------|-------------------------|
-------------------------------|-------------------------|
--0--1p--0--0--5g5p--0--0--1h--|--0--0----1--0--3--1--0--|


  PM PM  PM PM   PM  PM PM PM     PM PM   PM PM PM PM PM  
  E  E   E  E    E   E  E  E      E  Q    E  E  E  E  E   
-------------------------------|-------------------------|
-------------------------------|-------------------------|
-------------------------------|-------------------------|
-------------------------------|-------------------------|
-------------------------------|-------------------------|
--0--1p--0--0--5g5p--0--0--1h--|--0--0----1--0--3--1--0--|


  PM PM  PM PM   PM  PM PM PM     PM PM   PM PM PM PM PM                       
  E  E   E  E    E   E  E  E      E  Q    E  E  E  E  E     W                  
-------------------------------|-------------------------|-------------------||
-------------------------------|-------------------------|-------------------||
-------------------------------|-------------------------|-------------------||
-------------------------------|-------------------------|-------------------||
-------------------------------|-------------------------|-------------------||
--0--1p--0--0--5g5p--0--0--1h--|--0--0----1--0--3--1--0--|-------------------||


comments
We did not receive enough feedback on this tab! Please rate:
print report bad tab
1 2 3 4 5
I want to post or [tab]
guest
You may want to rate the tab now too:
select rating
Please do not post tabs as comments. Select "correction" instead!