Oops, an error
Loading. Please wait.

Taiyou No Ao Bass Tab

ver1
ver1

Whole song

Interactive

More versions @911Tabs.com
558 views 1 this week
no commentswrite comment
1 2 3 4 5
please rate
Autoscroll
+/-
esc
set tempo
stop
Contributor
Difficulty
intermediate
WARNING: You are trying to view
                                    content from Ultimate-Guitar.com
                                    in an unauthorized application,
                                    which is prohibited.

                                    Please use an official Ultimate
                                    Guitar Tabs application for iPhone,
                                    iPad or Android to access legitimate
                                    chords, guitar, bass, and drum tabs
                                    from Ultimate-Guitar.com database.

                                    Type "ultimate guitar tabs" in Apple
                                    App Store's or Android Market's
                                    search to find the application.
-------------------------------------------------------------------------------
			     Taiyou no Ao - Dir en grey
-------------------------------------------------------------------------------
Tabbed by: DeadxFreedom
Email: R_to_the_core@hotmail.co.uk

Tuning: Standard - E A D G

Key: E Tempo: 83 Time Signature: 4/4

                                                      
     W                   W                   W                 
G||-------------------|-------------------|-------------------|
D||-------------------|-------------------|-------------------|
A||-------------------|-------------------|-------------------|
E||-------------------|-------------------|-------------------|


  W                   W                   W                   W                 
-------------------|-------------------|-------------------|-------------------|
-------------------|-------------------|-------------------|-------------------|
-------------------|-------------------|-------------------|-------------------|
-------------------|-------------------|-------------------|-------------------|


                                                    H      P      H      P      
  W                   W                   H         S   S  S   S  S   S  S   S  
-------------------|-------------------|-----------13h-14----------------------|
-------------------|-------------------|------------------16p-14-13h-14--------|
-------------------|-------------------|--------------------------------16p-14-|
-------------------|-------------------|---------------------------------------|


               S                                                         
  H.           S  S E     H        E   E  E  E     H        E  E  E  E   
-----------------------|------------------------|-----------------------|
-----------------------|--------------/9--6-----|-----------------------|
---------------7s-9-7--|---------------------6--|--4--------L--6--7-----|
--0--------------------|--7--------L------------|--------------------7--|


                                         S                             H   
  Q     Q    E  E  E  E     H.           S  S E     H.           E     E   
-------------------------|-----------------------|------------------------|
-------/7----L-----7-----|-----------------------|--9------------L--------|
----------------7-----6--|---------------7s-9-7--|------------------9g11--|
--5----------------------|--0--------------------|------------------------|


                                                                 H      
   H         H            H.           E   E     Q    H          E  E   
--13--------11--------|--14------------L\-----|------------------------|
--11---------9--------|--14------------L\-----|-------7--------7g9--7--|
----------------------|---0-------------------|------------------------|
----------------------|--------------------4--|--5---------------------|


                 S                        P       
  H.             E  E     Q    H        S S  S S  
-----------------------|-------------------------|
--6--------------------|-------4--------4-6p-4---|
---------------6g4-----|-----------------------6-|
--------------------4--|--2----------------------|


            H    P    H    P                       H      
  Q    Q    S  S S  S S  S S  S    Q    H          E  E   
------------8h-9----------------|------------------------|
-------6---------9p-6-----------|-------7--------7g9--7--|
--7-------------------7h-9------|------------------------|
---------------------------9p-7-|--5---------------------|


         S                                S    S     
  Q.     S  S E.  S E  E     H.           S  S S  S  
--------------6---8-L-----|---------------9s-8------|
--6------4s-6----------9--|--------------------9s-4-|
--------------------------|--0----------------------|
--------------------------|-------------------------|

 
                                    Tempo change = 166  S   S    S       
  E  S S S S  E  S S S S S. T E     Q             E  E  E   S  S E   E   
---------------------------------|--------------------------------------|
-------------/9--9-9-9-9---------|-------------------------------9s--6--|
--2--2-2-2-2---------------------|----------------------9s--7s-9--------|
-------------------------7--7----|--0-------------0--0------------------|


  Q    E  E  E  E  E  E     E  E  E  E  E  E  E  E     E  E  E  E  E  E  E  E   
-------------------------|--------6--6--------------|--------------------------|
-------------------------|--------------6--6--4--4--|--7--7--6--6--4--4--------|
--2----2--2--2-----2--3--|--4--4--------------------|--------------------7--7--|
----------------4--------|--------------------------|--------------------------|


  E  E  E  E  E  E  E  E     E  E  E  E  E  E  E  E   
--------------------------|--------------------------|
--------------------------|--------------------6-----|
--------4--4--7--7--4--4--|--------6--6--9--9-----9--|
--5--5--------------------|--7--7--------------------|


  E  E  E  E  E  E  E  E     E  E  E  E  E  E  E  E   
--------------------------|--------------------------|
--------------------------|--------------------------|
--------------------7--6--|-----------4--4--4--6--6--|
--0--0--2--0--4--7--------|--7--7--7-----------------|


             S   S    S                                 
  Q    E  E  E   S  S E   E     Q    E  E  E  E  E  E   
-----------------------------|-------------------------|
----------------------9s--6--|-------------------------|
-------------9s--7s-9--------|--2----2--2--2-----2--3--|
--0----0--0------------------|----------------4--------|


  E  E  E  E  E  E  E  E     E  E  E  E  E  E  E  E   
--------6--6--------------|--------------------------|
--------------6--6--4--4--|--7--7--6--6--4--4--------|
--4--4--------------------|--------------------7--7--|
--------------------------|--------------------------|


  E  E  E  E  E  E  E  E     E  E  E  E  E  E  E  E     W                 
--------------------------|--------------------------|-------------------|
--------------------------|--------------------------|-------------------|
--------4--4--7--7--4--4--|--------------------------|-------------------|
--5--5--------------------|--7--7--7--7--7--7--7--4--|-------------------|


  H.              E  E  E  E  E  E  E  E     E  E  E  E  E  E  E  E   
---------------|--------------------------|--------------------------|
---------------|--------------------------|--------------------------|
---------------|--------------------------|--------------------0--0--|
---------------|--0--0--0--0--0--0--0--0--|--0--0--2--2--4--4--------|


  E  E  E  E  E  E  E  E     E  E  E  E  E  E  E  E   
--------------------------|--------------------------|
--------------------------|--------------------------|
--2--2--2--2--2--2--2--2--|--2--2--------2--2--3--3--|
--------------------------|--------4--4--------------|


  E  E  E  E  E  E  E  E     E  E  E  E  E  E  E  E   
--------------------------|--------------------------|
--------------------------|--------------------------|
--4--4--4--4--4--4--4--4--|--4--4--6--6--7--7--------|
--------------------------|--------------------7--7--|


  E  E  E  E  E  E  Q        E  E  E  E  E  E  E  E   
--------------------------|--------------------------|
--------------------------|--------------------------|
--------------------9\----|--------------------------|
--5--5--5--5--5--5--------|--5--5--5--4--4--4--2--2--|


  E  E  E  E  E  E  E  E     E  E  E  E  E  E  E  E   
--------------------------|--------------------------|
--------------------------|--------------------------|
--------------------------|--------------------0--0--|
--0--0--0--0--0--0--0--0--|--0--0--2--2--4--4--------|


  E  E  E  E  E  E  E  E     E  E  E  E  E  E  E  E   
--------------------------|--------------------------|
--------------------------|--------------------------|
--2--2--2--2--2--2--2--2--|--2--2--------2--2--3--3--|
--------------------------|--------4--4--------------|


  E  E  E  E  E  E  E  E     E  E  E  E  E  E  E  E   
--------------------------|--------------------------|
--------------------------|-----------6--6--6--------|
--4--4--4--4--4--4--4--4--|--4--4--4-----------4--4--|
--------------------------|--------------------------|


           S   S                                        
  E  E  E  E   E   E  E  E     E  E  E  E  E  E  E  E   
----------------------------|--------------------------|
-----------2s--4s--2--------|-----------7--7--7--------|
--2--2--2-------------2-----|--------------------4--4--|
-------------------------4--|--5--5--5-----------------|


  E  E  E  E  E  E  E  E     E  E  E  E  E  E  E  E   
--------------------------|--------------------------|
-----4-----4--4-----------|--------------------------|
--4--------------6--------|--------------------------|
--------------------7--4--|--5--5--0--5-----5--0--5--|


  E  E  E  E  E  E  E  E     E  E  E  E  E  E  E  E   
--------------------------|--------------------------|
--------------------------|--------------------------|
--------------4--4--------|--------------------------|
-----5--0--5--------7--7--|--4--4--2--4-----4--2--4--|


  E  E  E  E  E  E  E  E     E  E  E  E  E  E  E  E   
--------------------------|--------------------------|
--------------------------|--4--4-----4-----4-----4--|
--------------7--7--------|--------4-----------4-----|
-----4--2--4--------7--7--|--------------------------|


  E  E  E  E  E  E  E  E     E  E  E  E  E  E  E  E   
--------------------------|--------------------------|
-----4-----4--6--6--4-----|--------------------------|
--------4--------------6--|--7--7-----7-----7-----7--|
--------------------------|--------7-----------7-----|


  E  E  E  E  E  E  E  E     E  E  E  E  E  E  E  E   
--------------9--8--------|--------------------------|
--------6-----------9--6--|--------------------------|
-----7-----7--------------|--0--0-----0-----0-----0--|
--------------------------|--------0-----------0-----|


                                                 S     
  E  E  E  E  E  E  E  E     E  E  E  E  E  E    Q     
--------------------------|---------------------------|
--------------------------|---------------------------|
-----0-----0--4--4--2--2--|--------------------4g6----|
--------0-----------------|--4--4--2--4-----4---------|


  E  E  E  E  E  E  E  E     E  E  E  E  E  E  E  E   
--------------------------|--------------------------|
--------------------------|--------------------------|
--4--4--4--6--6--6--2--2--|--0--0--0--0--0--2--4--0--|
--------------------------|--------------------------|


  E  E  E  E  E  E  E  E     E  E  E  E  E  E   Q       E  E  E  E  E.  S Q     
--------------------------|--------------------------|-------------------------|
-----------------2--------|--------------------/9----|--9--9--9--9-------------|
--0--0--0--0--0-----4--0--|--2--2--2--2--2--2--------|-------------------------|
--------------------------|--------------------------|--------------7---7------|


             S   S      S                                  
    E  E  E  E   E   E  E   E     E  E  E  E  E  E  E  E   
|------------------------------|--------------------------|
|*----------------------9s--6--|--------------------------|
|*-----------7s--9s--7---------|--------------------------|
|---0--0--0--------------------|--7--7--7--7--7--7--5--4--|


  E  E  E  E  E  E  E  E     E  E  E  E  E  E  E  E     
--------------------------|--------6--6--L------------||
-----------------------7--|-----------------9--6-----*||
--0--0--4--0--0--7--0-----|--0--0-----------------9--*||
--------------------------|---------------------------||


                                       S   S      S       
  E  E  E  E  E  E   E  E     E  E  E  E   E   E  E   E   
--------6--6--L-----11--8--|-----------------------------|
-----------------7---------|----------------------9s--6--|
--0--0---------------------|-----------7s--9s--7---------|
---------------------------|--0--0--0--------------------|


  E  E  E  E  E  E  E  E     E  E  E  E  E  E  E  E   
--------------------------|--------------------------|
--------------------------|-----------------------7--|
--------------------------|--0--0--4--0--0--7--0-----|
--7--7--7--7--7--7--5--4--|--------------------------|


                                      S   S      S       
  E  E  E  E  E  E  E  E     E  E  E  E   E   E  E   E   
--------6--6--L-----------|-----------------------------|
-----------------9--6-----|----------------------9s--6--|
--0--0-----------------9--|-----------7s--9s--7---------|
--------------------------|--0--0--0--------------------|


  E  E  E  E  E  E  E  E     E  E  E  E  E  E  E  E     E  E  Q    H         
--------------------------|--------------------------|----------------------|
--------------------------|-----------------------7--|--7-------------------|
--------------------------|--0--0--4--0--0--7--0-----|----------------------|
--7--7--7--7--7--7--5--4--|--------------------------|----------------------|


                                        S   S                                   
  Q    E  E  E  E  E  E     E  E  E  E  E   E   Q       Q    E  E  E  E  E  E   
-------------------------|---------------------------|-------------------------|
-------7-----------------|-----7-----7--7s--9s--7----|-------6-----------------|
-------------7--7--------|---------------------------|-------------6--6--------|
--5-------------------5--|---------------------------|--4-------------------4--|


     S   S                                                                      
  E  E   E   E  Q    Q       Q    E  E  E  E  E  E     E  E  E  E  E  E  E  E   
--------------------------|-------------------------|--------------------------|
-----4s--6s--4------------|-------4-----------------|--------------------------|
----------------7----6----|-------------4--4--------|-----------------------2--|
--------------------------|--2-------------------2--|-----2--0--2--5--4--2-----|


                                 S   S                                     
  Q.     E  Q    Q       E  Q    E   E   E  Q       Q    E  E  E  Q    E   
----------------------|----------8s--9s--8-------|------------------------|
-----------------6----|--L------------------9----|-------7----------------|
--4------7--L---------|-----7--------------------|--0----------7--7-------|
----------------------|--------------------------|---------------------5--|


              S   S                                                          
  E  E  E  E  E   E   Q       Q    E  E  E  E  E  E     Q.     E  Q    Q     
---------------------------|-------------------------|--6------8--L---------|
-----7-----7--7s--9s--7----|-------6--------------6--|-----------------9----|
---------------------------|-------------6--6--------|----------------------|
---------------------------|--4----------------------|----------------------|


  E  E  E  E  E  E  E  E     E  E  E  E  E  E  E  E   
--------------------------|--------------------------|
--------------------------|--------------7-----------|
--0--0--4--0-----0--4--0--|-----0--4--0-----7--4--0--|
--------------------------|--------------------------|


  E  E  E  E  E  E  E  E     E  E  E  E  E  E  E  E   
--------------------------|--------------------------|
--------1-----------1-----|--------1-----4--1--------|
--2--2-----2-----2-----2--|-----2-----2--------4--2--|
--------------------------|--------------------------|


   E  E  E  E  E  E  E  E     E  E  E  E  S E  S Q     
---------------------------|--------------------------|
--/9--9--9--9--9--9--9--9--|--9--9--7--6--------------|
---------------------------|--------------------------|
---------------------------|--------------7----7------|


             S   S    S                                 
  Q    E  E  E   S  S E   E     Q    E  E  E  E  E  E   
-----------------------------|-------------------------|
----------------------9s--6--|-------------------------|
-------------9s--7s-9--------|--2----2--2--2-----2--3--|
--0----0--0------------------|----------------4--------|


  E  E  E  E  E  E  E  E     E  E  E  E  E  E  E  E   
--------6--6--------------|--9--9--8--8--------------|
--------------6--6--4--4--|--------------9--9--6--6--|
--4--4--------------------|--------------------------|
--------------------------|--------------------------|


  E  E  E  E  E  E  E  E     E  E  E  E  E  E  E  E   
--------------------------|--------------------------|
--------------------4-----|--------------------6-----|
--------4--4--7--7-----4--|--------6--6--9--9-----9--|
--5--5--------------------|--7--7--------------------|


  E  E  E  E  E  E  E  E     E  E  E  E  E  E  E  E   
--------------------------|--------------------------|
--------------------------|--------------------------|
--------------------7--6--|-----------4--4--4--6--6--|
--0--0--2--0--4--7--------|--7--7--7-----------------|


             S   S    S                                 
  Q    E  E  E   S  S E   E     Q    E  E  E  E  E  E   
-----------------------------|-------------------------|
----------------------9s--6--|-------------------------|
-------------9s--7s-9--------|--2----2--2--2-----2--3--|
--0----0--0------------------|----------------4--------|


  E  E  E  E  E  E  E  E     E  E  E  E  E  E  E  E   
--------6--6--------------|--------------------------|
--------------6--6--4--4--|--7--7--6--6--4--4--------|
--4--4--------------------|--------------------7--7--|
--------------------------|--------------------------|


  E  E  E  E  E  E  E  E     E  E  E  E  E  E  E  E   
--------------------------|--------------------------|
--------------------4-----|--------------------6-----|
--------4--4--7--7-----4--|--------6--6--9--9-----9--|
--5--5--------------------|--7--7--------------------|


  E  E  E  E  E  E  E  E     E  E  E  E  E  E  E  E   
--------------------------|--------------------------|
--------------------------|--------------------------|
--------------------7--6--|--------------------------|
--0--0--2--0--4--7--------|--7--7--7--5--5--5--4--4--|


             S   S    S                                 
  Q    E  E  E   S  S E   E     Q    E  E  E  E  E  E   
-----------------------------|-------------------------|
----------------------9s--6--|-------------------------|
-------------9s--7s-9--------|--2----2--2--2-----2--3--|
--0----0--0------------------|----------------4--------|


  E  E  E  E  E  E  E  E     E  E  E  E  E  E  E  E   
--------6--6--------6--6--|--------------------------|
--------------6--6--------|--7--7--6--6--4--4--------|
--4--4--------------------|--------------------7--7--|
--------------------------|--------------------------|


  E  E  E  E  E  E  E  E     E  E  E  E  E  E  E  E   
--------------------------|--------------------------|
--------------------4-----|--------------------6-----|
--------4--4--7--7-----4--|--------6--6--9--9-----9--|
--5--5--------------------|--7--7--------------------|


  E  E  E  E  E  E  E  E     E  E  E  E  E  E  E  E   
--------------------------|--------------------------|
--------------------------|--------------------------|
--------------------7--6--|-----------4--4--4--6--6--|
--0--0--2--0--4--7--------|--7--7--7-----------------|


             S   S    S                                 
  Q    E  E  E   S  S E   E     Q    E  E  E  E  E  E   
-----------------------------|-------------------------|
----------------------9s--6--|-------------------------|
-------------9s--7s-9--------|--2----2--2--2-----2--3--|
--0----0--0------------------|----------------4--------|


  E  E  E  E  E  E  E  E     E  E  E  E  E  E  E  E   
--------6--6--------------|--------------------------|
--------------6--6--4--4--|--7--7--6--6--4--4--------|
--4--4--------------------|--------------------7--7--|
--------------------------|--------------------------|


  E  E  E  E  E  E  E  E     E  E  E  E  E  E  E  E   
--------------------------|--------------------------|
--------------------4-----|--------------------6-----|
--------4--4--7--7-----4--|--------6--6--9--9-----9--|
--5--5--------------------|--7--7--------------------|


    E  S S E  S S E  S S E  S S    E  S S E  S S E  E  E  E   
|-------------------------------|----------------------------|
|*------------------------------|----------------------------|
|*--7--7-7-7--7-7-7--7-7-7--7-7-|--7--7-7-7--7-7-7--9--7--6--|
|-------------------------------|----------------------------|


  E  S S E  S S E  S S E  S S    E  S S E  S S E  E  E  E   
------------------------------|----------------------------|
------------------------------|----------------------------|
--2--2-2-2--2-2-2--2-2-2--2-2-|--2--2-2-2--2-2-2-----2--3--|
------------------------------|-------------------4--------|


  E  S S E  S S E  S S E  S S    E  S S E  S S E  E  E  E   
------------------------------|----------------------------|
------------------------------|----------------------------|
--4--4-4-4--4-4-4--4-4-4--4-4-|--4--4-4-4--4-4-4--7--6-----|
------------------------------|-------------------------7--|


  E  S S E  S S E  S S E  E     E  S S E  S S E  E  E  E     
-----------------------------|-----------------------------||
-----------------------------|----------------------------*||
-----------------------4-----|-------------------9--7--6--*||
--5--5-5-5--5-5-5--5-5----5--|--7--7-7-7--7-7-7------------||


           S   S      S                                  
  E  E  E  E   E   E  E   E     E  E  E  E  E  E  E  E   
-----------------------------|--------------------------|
----------------------9s--6--|--------------------------|
-----------7s--9s--7---------|--2--2--2--2--2-----2--3--|
--0--0--0--------------------|-----------------4--------|


  E  E  E  E  E  E  E  E     E  E  E  E  E  E  E  E   
--------6--6--------------|--------------------------|
--------------6--6--4--4--|--7--7--6--6--4--4--------|
--4--4--------------------|--------------------7--7--|
--------------------------|--------------------------|


  E  E  E  E  E  E  E  E     E  E  E  E  E  E  E  E   
--------------------------|--------------------------|
--------------------------|--------------------------|
--------4--4--7--7--4--4--|--------6--6--9--9--6--6--|
--5--5--------------------|--7--7--------------------|


           S   S      S                                  
  E  E  E  E   E   E  E   E     E  E  E  E  E  E  E  E   
-----------------------------|--------------------------|
----------------------9s--6--|--------------------------|
-----------7s--9s--7---------|--2--2--2--2--2-----2--3--|
--0--0--0--------------------|-----------------4--------|


  E  E  E  E  E  E  E  E     E  E  E  E  E  E  E  E   
--------6--6--------------|--------------------------|
--------------6--6--4--4--|--7--7--6--6--4--4--------|
--4--4--------------------|--------------------7--7--|
--------------------------|--------------------------|


  E  E  E  E  E  E  E  E     E  E  E  E  E  E  E  E   
--------------------------|--------------------------|
--------------------------|--------------------------|
--------4--4--7--7--4--4--|--------6--6--9--9--6--6--|
--5--5--------------------|--7--7--------------------|


           S   S      S                                  
  E  E  E  E   E   E  E   E     E  E  E  E  E  E  E  E   
-----------------------------|--------------------------|
----------------------9s--6--|--------------------------|
-----------7s--9s--7---------|--2--2--2--2--2-----2--3--|
--0--0--0--------------------|-----------------4--------|


  E  E  E  E  E  E  E  E     E  E  E  E  E  E  E  E   
--------6--6--------------|--------------------------|
--------------6--6--4--4--|--7--7--6--6--4--4--------|
--4--4--------------------|--------------------7--7--|
--------------------------|--------------------------|


  E  E  E  E  E  E  E  E     E  E  E  E  E  E  E  E   
--------------------------|--------------------------|
--------------------------|--------------------------|
--------4--4--7--7--4--4--|--------6--6--9--9--6--6--|
--5--5--------------------|--7--7--------------------|


           S   S      S                                  
  E  E  E  E   E   E  E   E     E  E  E  E  E  E  E  E   
-----------------------------|--------------------------|
----------------------9s--6--|--------------------------|
-----------7s--9s--7---------|--2--2--2--2--2-----2--3--|
--0--0--0--------------------|-----------------4--------|


  E  E  E  E  E  E  E  E     E  E  E  E  E  E  E  E   
--------6--6--------------|--------------------------|
--------------6--6--4--4--|--7--7--6--6--4--4--------|
--4--4--------------------|--------------------7--7--|
--------------------------|--------------------------|


  E  E  E  E  E  E  E  E     E  E  E  E  E  E  E  E   
--------------------------|--------------------------|
--------------------------|--------------------------|
--------4--4--7--7--4--4--|--------6--6--9--9--6--6--|
--5--5--------------------|--7--7--------------------|


           S   S      S                                  
  E  E  E  E   E   E  E   E     E  E  E  E  E  E  E  E   
-----------------------------|--------------------------|
----------------------9s--6--|--------------------------|
-----------7s--9s--7---------|--2--2--2--2--2-----2--3--|
--0--0--0--------------------|-----------------4--------|


  E  E  E  E  E  E  E  E     E  E  E  E  E  E  E  E   
--------6--6--------------|--------------------------|
--------------6--6--4--4--|--7--7--6--6--4--4--------|
--4--4--------------------|--------------------7--7--|
--------------------------|--------------------------|


  E  E  E  E  E  E  E  E     E  E  E  E  E  E  E  E   
--------------------------|--------------------------|
--------------------------|--------------------------|
--------4--4--7--7--4--4--|--------6--6--9--9--6--6--|
--5--5--------------------|--7--7--------------------|


           S   S      S                                  
  E  E  E  E   E   E  E   E     E  E  E  E  E  E  E  E   
-----------------------------|--------------------------|
----------------------9s--6--|--------------------------|
-----------7s--9s--7---------|--2--2--2--2--2-----2--3--|
--0--0--0--------------------|-----------------4--------|


  E  E  E  E  E  E  E  E     E  E  E  E  E  E  E  E     W                 
--------6--6--------------|--------------------------|--6----------------|
--------------6--6--4--4--|--7--7--6--6--4--4--------|--7----------------|
--4--4--------------------|--------------------7--7--|--0----------------|
--------------------------|--------------------------|-------------------|


  W                   W                   W                   W                 
--L----------------|--L----------------|--L----------------|--L----------------|
--L----------------|--L----------------|--L----------------|--L----------------|
--L----------------|--L----------------|--L----------------|--L----------------|
-------------------|-------------------|-------------------|-------------------|


  W                   W                   W                   W                 
--L----------------|--L----------------|--L----------------|-------------------|
--L----------------|--L----------------|--L----------------|-------------------|
--L----------------|--L----------------|--L----------------|-------------------|
-------------------|-------------------|-------------------|-------------------|


  W                   W                   W                  
-------------------|-------------------|-------------------||
-------------------|-------------------|-------------------||
-------------------|-------------------|-------------------||
-------------------|-------------------|-------------------||




Duration Legend
---------------
W - whole
H - half
Q - quarter
E - 8th
S - 16th
T - 32nd
X - 64th
. - note dotted
|-n-|  - n-tuplets


Tablature Legend
----------------
L - tied note
x - dead note
g - grace note
(n) - ghost note
> - accentuded note
NH - natural harmonic
AH - artificial harmonic
TH - tapped harmonic
SH - semi harmonic
PH - pitch harmonic
h - hammer on
p - pull off
b - bend
br - bendRelease
pb - preBend
pbr - preBendRelease
brb - bendReleaseBend
\n/ - tremolo bar dip
\n - tremolo bar dive
-/n - tremolo bar Release up
/n\ - tremolo bar inverted dip
/n - tremolo bar return
-\n - tremolo bar Release down
S - shift slide
s - legato slide
/ -  slide into from below or out of upwards
\ -  slide into from above or out of downwards
~ - vibrato
W - wide vibrato
tr - trill
TP - tremolo picking
T - tapping
S - slap
P - pop
< - fade in
^ - brush up
v - brush down
comments
We did not receive enough feedback on this tab! Please rate:
print report bad tab
1 2 3 4 5
I want to post or [tab]
guest
You may want to rate the tab now too:
select rating
Please do not post tabs as comments. Select "correction" instead!