Oops, an error
Loading. Please wait.

The Iii D Empire Tab

ver1
ver1

Whole song

Interactive

More versions @911Tabs.com
1,193 views 1 this week
no commentswrite comment
1 2 3 4 5
please rate
Autoscroll
+/-
esc
set tempo
stop
Contributor
Difficulty
intermediate
WARNING: You are trying to view
                                    content from Ultimate-Guitar.com
                                    in an unauthorized application,
                                    which is prohibited.

                                    Please use an official Ultimate
                                    Guitar Tabs application for iPhone,
                                    iPad or Android to access legitimate
                                    chords, guitar, bass, and drum tabs
                                    from Ultimate-Guitar.com database.

                                    Type "ultimate guitar tabs" in Apple
                                    App Store's or Android Market's
                                    search to find the application.
     THE III D EMPIRE                                 


                                                                     Dir En Grey
Die
Enjoy! And if you have any questions email me: zachthebattousai@yahoo.com



      W                 
D#||-------------------|
A#||-------------------|
F#||-------------------|
C#||-------------------|
G#||-------------------|
C#||-------------------|


  Delay/Wah/Flanger/Ect.                                  
  S                      S S S S  S S S S S S S S  S  E   
--------------------------------------8-L----------------|
-----------------------------------------------------10--|
--7----------------------7-7-7-8p-7-7-----7-7-7-8p-7-----|
---------------------------------------------------------|
---------------------------------------------------------|
---------------------------------------------------------|


  S S S S S  S S S S S S S S  S  E     S S S S S  S S S S S S S S  S  E   
-----------------8-L------------10--|-----------------8-L----------------|
------------------------------------|--------------------------------10--|
--7-7-7-7-8p-7-7-----7-7-7-8p-7-----|--7-7-7-7-8p-7-7-----7-7-7-8p-7-----|
------------------------------------|------------------------------------|
------------------------------------|------------------------------------|
------------------------------------|------------------------------------|


  S S S S S  S S S S S  S  S  Q       S S S S S  S S S S S  S S S  S S S  
-----------------8-L---------------|-------------------------------------|
-----------------------------------|-------------------------------------|
--7-7-7-7-8p-7-7-----7h-8p-7S-5----|-------------------------------------|
-----------------------------------|-------------------------------------|
-----------------------------------|--0-0-0-0----------------------------|
-----------------------------------|--0-0-0-0-1p-0-0-0-L-1p-0-0-1p-0-0-0-|


  S S S S S  S S S S S  S S S  S S S    S S S S S  S S S S S  S S S  S S S  
-------------------------------------|-------------------------------------|
-------------------------------------|-------------------------------------|
-------------------------------------|-------------------------------------|
-------------------------------------|-------------------------------------|
--0-0-0-0----------------------------|--0-0-0-0----------------------------|
--0-0-0-0-1p-0-0-0-L-1p-0-0-1p-0-0-0-|--0-0-0-0-1p-0-0-0-L-1p-0-0-1p-0-0-0-|


  S S S S S  S S S S S  S S S  S S S    S S S S S  S S S S S  S S S  S S S  
-------------------------------------|-------------------------------------|
-------------------------------------|-------------------------------------|
-------------------------------------|-------------------------------------|
-------------------------------------|-------------------------------------|
--0-0-0-0----------------------------|--0-0-0-0----------------------------|
--0-0-0-0-1p-0-0-0-L-1p-0-0-1p-0-0-0-|--0-0-0-0-1p-0-0-0-L-1p-0-0-1p-0-0-0-|


  S S S S S  S S S S S  S S S  S S S    S S S S S  S S S S S  S S S  S S S  
-------------------------------------|-------------------------------------|
-------------------------------------|-------------------------------------|
-------------------------------------|-------------------------------------|
-------------------------------------|-------------------------------------|
--0-0-0-0----------------------------|--0-0-0-0----------------------------|
--0-0-0-0-1p-0-0-0-L-1p-0-0-1p-0-0-0-|--0-0-0-0-1p-0-0-0-L-1p-0-0-1p-0-0-0-|


  S S S S S  S S S S S  S S S  S S S    S S S S S  S S S S S S S S  S  E   
-------------------------------------|-----------------8-L------------10--|
-------------------------------------|------------------------------------|
-------------------------------------|--7-7-7-7-8p-7-7-----7-7-7-8p-7-----|
-------------------------------------|------------------------------------|
--0-0-0-0----------------------------|------------------------------------|
--0-0-0-0-1p-0-0-0-L-1p-0-0-1p-0-0-0-|------------------------------------|


  E  S  S Q    H           E  S  S Q    E  E  S S S S    E  S  S Q    H         
------------------------|-----------------------------|------------------------|
------------------------|-----------------------------|------------------------|
------------------------|-----------------------------|------------------------|
------------------------|---------------------------x-|------------------------|
--0--1p-0---------------|--0--1p-0---------0----0---x-|--0--1p-0---------------|
--0--1p-0---------------|--0--1p-0---------0----0---x-|--0--1p-0---------------|


  E  S  S Q    H           E  S  S Q    H         
------------------------|------------------------|
------------------------|------------------------|
------------------------|------------------------|
------------------------|------------------------|
--0--1p-0---------------|--0--1p-0---------------|
--0--1p-0---------------|--0--1p-0---------------|


  E  S  S Q    S S  S S S  S S  S    E  S  S Q    H         
----------------------------------|------------------------|
----------------------------------|------------------------|
----------------------------------|------------------------|
----------------------------------|------------------------|
--0--1p-0--------0h-1-0-3p-0-5p-0-|--0--1p-0---------------|
--0--1p-0--------0h-1-0-3p-0-5p-0-|--0--1p-0---------------|


  E  S  S Q    H           S S S S S  S S S S S  S S S  S S S  
------------------------|-------------------------------------|
------------------------|-------------------------------------|
------------------------|-------------------------------------|
------------------------|-------------------------------------|
--0--1p-0---------------|--0-0-0-0----------------------------|
--0--1p-0---------------|--0-0-0-0-1p-0-0-0-L-1p-0-0-1p-0-0-0-|


  S S S S S  S S S S S  S S S  S S S    S S S S S  S S S S S  S S S  S S S  
-------------------------------------|-------------------------------------|
-------------------------------------|-------------------------------------|
-------------------------------------|-------------------------------------|
-------------------------------------|-------------------------------------|
--0-0-0-0----------------------------|--0-0-0-0----------------------------|
--0-0-0-0-1p-0-0-0-L-1p-0-0-1p-0-0-0-|--0-0-0-0-1p-0-0-0-L-1p-0-0-1p-0-0-0-|


  S S S S S  S S S S S  S S S  S S S     S S S S S  S S S S S S S S  S  E   
-------------------------------------|------------------8-L----------------|
-------------------------------------|---------------------------------10--|
-------------------------------------|-----7-7-7-8p-7-7-----7-7-7-8p-7-----|
-------------------------------------|--12---------------------------------|
--0-0-0-0----------------------------|-------------------------------------|
--0-0-0-0-1p-0-0-0-L-1p-0-0-1p-0-0-0-|-------------------------------------|


  S S S S S  S S S S S S S S  S  E     S S S S S  S S S S S S S S  S  E   
-----------------8-L------------10--|-----------------8-L----------------|
------------------------------------|--------------------------------10--|
--7-7-7-7-8p-7-7-----7-7-7-8p-7-----|--7-7-7-7-8p-7-7-----7-7-7-8p-7-----|
------------------------------------|------------------------------------|
------------------------------------|------------------------------------|
------------------------------------|------------------------------------|


  S S S S S  S S S S S S S S  S  E     S S S S S  S S S S S S S S  S  E   
-----------------8-L------------10--|-----------------8-L----------------|
------------------------------------|--------------------------------10--|
--7-7-7-7-8p-7-7-----7-7-7-8p-7-----|--7-7-7-7-8p-7-7-----7-7-7-8p-7-----|
------------------------------------|------------------------------------|
------------------------------------|------------------------------------|
------------------------------------|------------------------------------|


  S S S S S  S S S S S S S S  S  E     S S S S S  S S S S S S S S  S  E   
-----------------8-L------------10--|-----------------8-L----------------|
------------------------------------|--------------------------------10--|
--7-7-7-7-8p-7-7-----7-7-7-8p-7-----|--7-7-7-7-8p-7-7-----7-7-7-8p-7-----|
------------------------------------|------------------------------------|
------------------------------------|------------------------------------|
------------------------------------|------------------------------------|


  S S S S S  S S S E  E  E  E     E  E  E  S S S S E  E  E   
-----------------8-L-----------|----------------------------|
-------------------------------|----------------------------|
--7-7-7-7-8p-7-7---------------|----------------------------|
----------------------8--7--6--|--0--5--6--0-0-L-0-5--6--0--|
----------------------8--7--6--|--0--5--6--0-0-L-0-5--6--0--|
----------------------8--7--6--|--0--5--6--0-0-L-0-5--6--0--|


                 PM PM PM                               
  E  E  E  E  E  E  E  E     E  E  E  S S S S E  E  E   
--------------------------|----------------------------|
--------------------------|----------------------------|
--------------------------|----------------------------|
--5--6--0--5--6-----------|--0--5--6--0-0-L-0-5--6--0--|
--5--6--0--5--6--0--5--0--|--0--5--6--0-0-L-0-5--6--0--|
--5--6--0--5--6--0--5--0--|--0--5--6--0-0-L-0-5--6--0--|


                 PM PM PM                               
  E  E  E  E  E  E  E  E     E  E  E  S S S S E  E  E   
--------------------------|----------------------------|
--------------------------|----------------------------|
--------------------------|----------------------------|
--5--6--0--5--6-----------|--0--5--6--0-0-L-0-5--6--0--|
--5--6--0--5--6--0--5--0--|--0--5--6--0-0-L-0-5--6--0--|
--5--6--0--5--6--0--5--0--|--0--5--6--0-0-L-0-5--6--0--|


                 PM PM PM                               
  E  E  E  E  E  E  E  E     E  E  E  S S S S E  E  E   
--------------------------|----------------------------|
--------------------------|----------------------------|
--------------------------|----------------------------|
--5--6--0--5--6-----------|--0--5--6--0-0-L-0-5--6--0--|
--5--6--0--5--6--0--5--0--|--0--5--6--0-0-L-0-5--6--0--|
--5--6--0--5--6--0--5--0--|--0--5--6--0-0-L-0-5--6--0--|


                 PM PM PM                      
  E  E  E  E  E  E  E  E     W                 
--------------------------|-------------------|
--------------------------|-------------------|
--------------------------|-------------------|
--5--6--0--5--6-----------|-------------------|
--5--6--0--5--6--0--5--0--|-------------------|
--5--6--0--5--6--0--5--0--|-------------------|


  S S S S S  S S S S S  S S S  S S S    S S S S S  S S S S S  S S S  S S S  
-------------------------------------|-------------------------------------|
-------------------------------------|-------------------------------------|
-------------------------------------|-------------------------------------|
-------------------------------------|-------------------------------------|
--0-0-0-0----------------------------|--0-0-0-0----------------------------|
--0-0-0-0-1p-0-0-0-L-1p-0-0-1p-0-0-0-|--0-0-0-0-1p-0-0-0-L-1p-0-0-1p-0-0-0-|


  S S S S S  S S S S S  S S S  S S S    S S S S S  S S S S S  S S S  S S S  
-------------------------------------|-------------------------------------|
-------------------------------------|-------------------------------------|
-------------------------------------|-------------------------------------|
-------------------------------------|-------------------------------------|
--0-0-0-0----------------------------|--0-0-0-0----------------------------|
--0-0-0-0-1p-0-0-0-L-1p-0-0-1p-0-0-0-|--0-0-0-0-1p-0-0-0-L-1p-0-0-1p-0-0-0-|


  S S S S S  S S S S S  S S S  S S S    S S S S S  S S S S S  S S S  S S S  
-------------------------------------|-------------------------------------|
-------------------------------------|-------------------------------------|
-------------------------------------|-------------------------------------|
-------------------------------------|-------------------------------------|
--0-0-0-0----------------------------|--0-0-0-0----------------------------|
--0-0-0-0-1p-0-0-0-L-1p-0-0-1p-0-0-0-|--0-0-0-0-1p-0-0-0-L-1p-0-0-1p-0-0-0-|


  S S S S S  S S S S S  S S S  S S S    S S S S S  S S S S S  S S S  S S S  
-------------------------------------|-------------------------------------|
-------------------------------------|-------------------------------------|
-------------------------------------|-------------------------------------|
-------------------------------------|-------------------------------------|
--0-0-0-0----------------------------|--0-0-0-0----------------------------|
--0-0-0-0-1p-0-0-0-L-1p-0-0-1p-0-0-0-|--0-0-0-0-1p-0-0-0-L-1p-0-0-1p-0-0-0-|


  W                   W                   W                   W                 
-------------------|-------------------|-------------------|-------------------|
-------------------|-------------------|-------------------|-------------------|
-------------------|-------------------|-------------------|-------------------|
-------------------|-------------------|-------------------|-------------------|
-------------------|-------------------|-------------------|-------------------|
-------------------|-------------------|-------------------|-------------------|


  W                   W                   W                   W                 
-------------------|-------------------|-------------------|-------------------|
-------------------|-------------------|-------------------|-------------------|
-------------------|-------------------|-------------------|-------------------|
-------------------|-------------------|-------------------|-------------------|
-------------------|-------------------|-------------------|-------------------|
-------------------|-------------------|-------------------|-------------------|


  S S S S S  S S S S S S S S  S  E     S S S S S  S S S S S S S S  S  E   
-----------------8-L----------------|-----------------8-L------------10--|
--------------------------------10--|------------------------------------|
--7-7-7-7-8p-7-7-----7-7-7-8p-7-----|--7-7-7-7-8p-7-7-----7-7-7-8p-7-----|
------------------------------------|------------------------------------|
------------------------------------|------------------------------------|
------------------------------------|------------------------------------|


  S S S S S  S S S S S S S S  S  E     S S S S S  S S S H         
-----------------8-L----------------|-----------------8----------|
--------------------------------10--|----------------------------|
--7-7-7-7-8p-7-7-----7-7-7-8p-7-----|--7-7-7-7-8p-7-7------------|
------------------------------------|----------------------------|
------------------------------------|----------------------------|
------------------------------------|----------------------------|


  E.  S S E.  Q    S S S S    S S S S S  S S S S S  S S S  S S S  
---------------------------|-------------------------------------|
---------------------------|-------------------------------------|
---------------------------|-------------------------------------|
---------------------------|-------------------------------------|
--0---0-0----------0---0---|--0-0-0-0----------------------------|
--0---0-0----------0---0---|--0-0-0-0-1p-0-0-0-L-1p-0-0-1p-0-0-0-|


  S S S S S  S S S S S  S S S  S S S    S S S S S  S S S S S  S S S  S S S  
-------------------------------------|-------------------------------------|
-------------------------------------|-------------------------------------|
-------------------------------------|-------------------------------------|
-------------------------------------|-------------------------------------|
--0-0-0-0----------------------------|--0-0-0-0----------------------------|
--0-0-0-0-1p-0-0-0-L-1p-0-0-1p-0-0-0-|--0-0-0-0-1p-0-0-0-L-1p-0-0-1p-0-0-0-|


                      PM PM PM       PM PM       PM PM     
  S S S S S  S S S E  E  E  E     E  E  E  E  E  E  E  E   
-------------------------------|--------------------------|
-------------------------------|--------------------------|
-------------------------------|--------------------------|
----------------------8--7--6--|--0--5--6--0--L--5--6--0--|
--0-0-0-0-------------8--7--6--|--0--5--6--0--L--5--6--0--|
--0-0-0-0-1p-0-0-0-L--8--7--6--|--0--5--6--0--L--5--6--0--|


     PM PM       PM PM PM       PM PM       PM PM     
  E  E  E  E  E  E  E  E     E  E  E  E  E  E  E  E   
--------------------------|--------------------------|
--------------------------|--------------------------|
--------------------------|--------------------------|
--L--5--6--0--L--5--6--0--|--0--5--6--0--L--5--6--0--|
--L--5--6--0--L--5--6--0--|--0--5--6--0--L--5--6--0--|
--L--5--6--0--L--5--6--0--|--0--5--6--0--L--5--6--0--|


     PM PM       PM PM PM       PM PM       PM PM     
  E  E  E  E  E  E  E  E     E  E  E  E  E  E  E  E   
--------------------------|--------------------------|
--------------------------|--------------------------|
--------------------------|--------------------------|
--L--5--6--0--L--5--6--0--|--0--5--6--0--L--5--6--0--|
--L--5--6--0--L--5--6--0--|--0--5--6--0--L--5--6--0--|
--L--5--6--0--L--5--6--0--|--0--5--6--0--L--5--6--0--|


     PM PM       PM PM PM       PM PM       PM PM     
  E  E  E  E  E  E  E  E     E  E  E  E  E  E  E  E   
--------------------------|--------------------------|
--------------------------|--------------------------|
--------------------------|--------------------------|
--L--5--6--0--L--5--6--0--|--0--5--6--0--L--5--6--0--|
--L--5--6--0--L--5--6--0--|--0--5--6--0--L--5--6--0--|
--L--5--6--0--L--5--6--0--|--0--5--6--0--L--5--6--0--|


     PM PM       PM PM PM                               
  E  E  E  E  E  E  E  E     E  E  E  S S S S E  E  E   
--------------------------|----------------------------|
--------------------------|----------------------------|
--------------------------|----------------------------|
--L--5--6--0-----8--7--6--|--0--5--6--0-0-L-0-5--6--0--|
--L--5--6--0-----8--7--6--|--0--5--6--0-0-L-0-5--6--0--|
--L--5--6--0-----8--7--6--|--0--5--6--0-0-L-0-5--6--0--|


                 PM PM PM                               
  E  E  E  E  E  E  E  E     E  E  E  S S S S E  E  E   
--------------------------|----------------------------|
--------------------------|----------------------------|
--------------------------|----------------------------|
--5--6--0--5--6-----------|--0--5--6--0-0-L-0-5--6--0--|
--5--6--0--5--6--0--5--0--|--0--5--6--0-0-L-0-5--6--0--|
--5--6--0--5--6--0--5--0--|--0--5--6--0-0-L-0-5--6--0--|


                 PM PM PM                               
  E  E  E  E  E  E  E  E     E  E  E  S S S S E  E  E   
--------------------------|----------------------------|
--------------------------|----------------------------|
--------------------------|----------------------------|
--5--6--0--5--6-----------|--0--5--6--0-0-L-0-5--6--0--|
--5--6--0--5--6--0--5--0--|--0--5--6--0-0-L-0-5--6--0--|
--5--6--0--5--6--0--5--0--|--0--5--6--0-0-L-0-5--6--0--|


                 PM PM PM                               
  E  E  E  E  E  E  E  E     E  E  E  S S S S E  E  E   
--------------------------|----------------------------|
--------------------------|----------------------------|
--------------------------|----------------------------|
--5--6--0--5--6-----------|--0--5--6--0-0-L-0-5--6--0--|
--5--6--0--5--6--0--5--0--|--0--5--6--0-0-L-0-5--6--0--|
--5--6--0--5--6--0--5--0--|--0--5--6--0-0-L-0-5--6--0--|


                 PM PM PM                                        
  E  E  E  E  E  E  E  E     S S S S S  S S S S S  S S S  S S S  
--------------------------|-------------------------------------|
--------------------------|-------------------------------------|
--------------------------|-------------------------------------|
--5--6--0--5--6-----------|-------------------------------------|
--5--6--0--5--6--0--5--0--|--0-0-0-0----------------------------|
--5--6--0--5--6--0--5--0--|--0-0-0-0-1p-0-0-0-L-1p-0-0-1p-0-0-0-|


  S S S S S  S S S S S  S S S  S S S    S S S S S  S S S S S  S S S  S S S  
-------------------------------------|-------------------------------------|
-------------------------------------|-------------------------------------|
-------------------------------------|-------------------------------------|
-------------------------------------|-------------------------------------|
--0-0-0-0----------------------------|--0-0-0-0----------------------------|
--0-0-0-0-1p-0-0-0-L-1p-0-0-1p-0-0-0-|--0-0-0-0-1p-0-0-0-L-1p-0-0-1p-0-0-0-|


  S S S S S  S S S S S  S S S  S S S    S S S S S  S S S S S  S S S  S S S  
-------------------------------------|-------------------------------------|
-------------------------------------|-------------------------------------|
-------------------------------------|-------------------------------------|
-------------------------------------|-------------------------------------|
--0-0-0-0----------------------------|--0-0-0-0----------------------------|
--0-0-0-0-1p-0-0-0-L-1p-0-0-1p-0-0-0-|--0-0-0-0-1p-0-0-0-L-1p-0-0-1p-0-0-0-|


  S S S S S  S S S S S  S S S  S S S    S S S S S  S S S S S  S S S  S S S  
-------------------------------------|-------------------------------------|
-------------------------------------|-------------------------------------|
-------------------------------------|-------------------------------------|
-------------------------------------|-------------------------------------|
--0-0-0-0----------------------------|--0-0-0-0----------------------------|
--0-0-0-0-1p-0-0-0-L-1p-0-0-1p-0-0-0-|--0-0-0-0-1p-0-0-0-L-1p-0-0-1p-0-0-0-|


                                                         PM   PM   PM    
                                                         |----3----|     
  S S S S S  S S S S S  S S S  S S S    S S S S S  S S S Q    Q    Q     
-------------------------------------|----------------------------------|
-------------------------------------|----------------------------------|
-------------------------------------|----------------------------------|
-------------------------------------|-------------------8----7----6----|
--0-0-0-0----------------------------|--0-0-0-0----------8----7----6----|
--0-0-0-0-1p-0-0-0-L-1p-0-0-1p-0-0-0-|--0-0-0-0-1p-0-0-0-8----7----6----|


  E  E  E  S S S S E  E  E     W                   W                 
----------------------------|-------------------|-------------------|
----------------------------|-------------------|-------------------|
----------------------------|-------------------|-------------------|
--0--5--6--0-0-L-0-5--6--0--|--L----------------|--L----------------|
--0--5--6--0-0-L-0-5--6--0--|--L----------------|--L----------------|
--0--5--6--0-0-L-0-5--6--0--|--L----------------|--L----------------|


  W                  
-------------------||
-------------------||
-------------------||
--L----------------||
--L----------------||
--L----------------||




Duration Legend
---------------
W - whole
H - half
Q - quarter
E - 8th
S - 16th
T - 32nd
X - 64th
. - note dotted
|-n-|  - n-tuplets


Tablature Legend
----------------
L - tied note
x - dead note
g - grace note
(n) - ghost note
> - accentuded note
NH - natural harmonic
AH - artificial harmonic
TH - tapped harmonic
SH - semi harmonic
PH - pitch harmonic
h - hammer on
p - pull off
b - bend
br - bendRelease
pb - preBend
pbr - preBendRelease
brb - bendReleaseBend
\n/ - tremolo bar dip
\n - tremolo bar dive
-/n - tremolo bar Release up
/n\ - tremolo bar inverted dip
/n - tremolo bar return
-\n - tremolo bar Release down
S - shift slide
s - legato slide
/ -  slide into from below or out of upwards
\ -  slide into from above or out of downwards
~ - vibrato
W - wide vibrato
tr - trill
TP - tremolo picking
T - tapping
S - slap
P - pop
< - fade in
^ - brush up
v - brush down
comments
We did not receive enough feedback on this tab! Please rate:
print report bad tab
1 2 3 4 5
I want to post or [tab]
guest
You may want to rate the tab now too:
select rating
Please do not post tabs as comments. Select "correction" instead!