Oops, an error
Loading. Please wait.

Twentyfour Cylinder Bass Tab

772 views 1 this week
no commentswrite comment
1 2 3 4 5
accurate
x 1
Autoscroll
+/-
esc
set tempo
stop
Contributor
Difficulty
novice
Hey! There's an official Ultimate Guitar app which is ideal
for learning songs when you're away from computer. Get the app
WARNING: You are trying to view
                                    content from Ultimate-Guitar.com
                                    in an unauthorized application,
                                    which is prohibited.

                                    Please use an official Ultimate
                                    Guitar Tabs application for iPhone,
                                    iPad or Android to access legitimate
                                    chords, guitar, bass, and drum tabs
                                    from Ultimate-Guitar.com database.

                                    Type "ultimate guitar tabs" in Apple
                                    App Store's or Android Market's
                                    search to find the application.
Artist: Dir En Grey
Song: 24ko Cylinder


F||------------------|------------------|------------------|-----------------|
C||------------------|------------------|------------------|-----------------|
G||------------------|------------------|------------------|-----------------|
D||------------------|------------------|------------------|-----------------|

---------------------------------|---------------------------------|
---------------------------------|---------------------------------|
----------7----------------------|----------7----------------------|
--0-0-0-0---7-7-0--0-3-0-0-0-5-7-|--0-0-0-0---7-7-0--0-3-0-0-0-5-3-|

---------------------------------|---------------------------------|
---------------------------------|---------------------------------|
----------7----------------------|----------7--------7-7-7-7-7-----|
--0-0-0-0---7-7-0--0-3-0-0-0-5-7-|--0-0-0-0---7-7-0------------7-7-|

-------------------------------------|--------------------------------|
-------------------------------------|--------------------------------|
----------7--------10-10-10-10-10----|--0-0-0-0-3-0-0-0--0--0-0-2-0---|
--8-8-8-8---8-8-8-----------------8/-|------------------------------3-|

---------------------------------|---------------------------------|
---------------------------------|---------------------------------|
----------7----------------------|----------7--------7-7-7-7-7-----|
--0-0-0-0---7-7-0--0-3-0-0-0-5-7-|--0-0-0-0---7-7-0------------7-7-|

-------------------|------------------|------------------|
-------------------|------------------|------------------|
-------------------|------------------|------------------|
--0----------------|------------------|------------------|

-----------------------|------------------------|-----------------------|
--------------10-------|------------------------|-----------------------|
-----------------10-7--|------------------------|--0------------0-2-0---|
-----------------------|--8------------8-10-8-7-|---------------------3-|

-------------------------|-------------------------|-------------------------|
-------------------------|-------------------------|-------------------------|
---------7---------------|-------------------------|---------7---------------|
--0-0--0----0-0--0-------|--0-0--0-0--0-0--0-------|--0-0--0----0-0--0-------|

-------------------------|-------------------------|
-------------------------|-------------------------|
---------7---------------|---------7---------------|
--0-0--0----0-0--0-------|--0-0--0----0-0--0-------|

---------------------------------|------------------------|
---------------------------------|------------------------|
----------------10---9---7-------|------------------------|
--0-0--0-0--0-0----0---0---7-5-7-|--8------------8-10-8-7-|

-----------------------|-------------------------|
-----------------------|-------------------------|
--0------------0-2-0---|---------7---------------|
---------------------3-|--0-0--0----0-0--0-------|

------------------------------|---------------------------------|
------------------------------|---------------------------5-4---|
-----------------7-7-7-7-7----|-------------------7-7-7-7-----7-|
--0-0--0-0--0-0------------7--|--0-0-0-0-3-0-0-0----------------|

-------------------------------|---------------------------------|
---------4---------------------|-------------------------5-5-5-5-|
--5--5-5---5-5-5--5--5-5-2-2-2-|--2h3-3-3-3---2-3--3-3-3---------|
-------------------------------|------------3--------------------|

--------------------------------|---------------------------------|
------------------------5/7/5-4-|---------------------------5-4---|
--2h3-3-3-3---2-3--3--3---------|-------------------7-7-7-7-----7-|
------------3-------------------|--0-0-0-0-3-0-0-0----------------|

-------------------------------|---------------------------------|
---------4---------------------|-------------------------5-5-5-5-|
--5--5-5---5-5-5--5--5-5-2-2-2-|--2h3-3-3-3---2-3--3-3-3---------|
-------------------------------|------------3--------------------|

--------------------------------|------------------|-------------------------|
--------------------------------|------------------|-------------------------|
--2h3-3-3-3---2-3--3--3-3-2-0---|------------------|---------7---------------|
------------3-----------------3-|------------------|--0-0--0----0-0--0-------|

-------------------------|-------------------------|
-------------------------|-------------------------|
---------7---------------|---------7---------------|
--0-0--0----0-0--0-------|--0-0--0----0-0--0-------|

---------------------------------|------------------------|
---------------------------------|------------------------|
----------------10---9---7-------|------------------------|
--0-0--0-0--0-0----0---0---7-5-7-|--8------------8-10-8-7-|

-----------------------|-------------------------|
-----------------------|-------------------------|
--0------------0-2-0---|---------7---------------|
---------------------3-|--0-0--0----0-0--0-------|

------------------------------|---------------------------------|
------------------------------|---------------------------5-4---|
-----------------7-7-7-7-7----|-------------------7-7-7-7-----7-|
--0-0--0-0--0-0------------7--|--0-0-0-0-3-0-0-0----------------|

-------------------------------|---------------------------------|
---------4---------------------|-------------------------5-5-5-5-|
--5--5-5---5-5-5--5--5-5-2-2-2-|--2h3-3-3-3---2-3--3-3-3---------|
-------------------------------|------------3--------------------|

--------------------------------|---------------------------------|
------------------------5/7/5-4-|---------------------------5-4---|
--2h3-3-3-3---2-3--3--3---------|-------------------7-7-7-7-----7-|
------------3-------------------|--0-0-0-0-3-0-0-0----------------|

-------------------------------|---------------------------------|
---------4---------------------|-------------------------5-5-5-5-|
--5--5-5---5-5-5--5--5-5-2-2-2-|--2h3-3-3-3---2-3--3-3-3---------|
-------------------------------|------------3--------------------|

--------------------------------|------------------|
--------------------------------|------------------|
--2h3-3-3-3---2-3--3--3-3-2-0---|------------------|
------------3-----------------3-|------------------|

---------------------------------|---------------------------------|
---------------------------------|---------------------------------|
----------7----------------------|----------7----------------------|
--0-0-0-0---7-7-0--0-3-0-0-0-5-7-|--0-0-0-0---7-7-0--0-3-0-0-0-5-3-|

---------------------------------|---------------------------------|
---------------------------------|---------------------------------|
----------7----------------------|----------7--------7-7-7-7-7-----|
--0-0-0-0---7-7-0--0-3-0-0-0-5-7-|--0-0-0-0---7-7-0------------7-7-|

-------------------------------------|--------------------------------|
-------------------------------------|--------------------------------|
----------7--------10-10-10-10-10----|--0-0-0-0-3-0-0-0--0--0-0-2-0---|
--8-8-8-8---8-8-8-----------------8/-|------------------------------3-|

--------------------------|----------------------------|
--------------------------|----------------------------|
--------------------------|--------------------7/5-----|
--0-0--0-0--0-0-----3h5---|--0-0--0-0--0-0---------5h7-|

---------------------------------|---------------------------------|
---------------------------------|---------------------------------|
----------7----------------------|----------7----------------------|
--0-0-0-0---7-7-0--0-3-0-0-0-5-7-|--0-0-0-0---7-7-0--0-3-0-0-0-5-3-|

---------------------------------|---------------------------------|
---------------------------------|---------------------------------|
----------7----------------------|----------7--------7-7-7-7-7-----|
--0-0-0-0---7-7-0--0-3-0-0-0-5-7-|--0-0-0-0---7-7-0------------7-7-|

---------------------------------------|--------------------------------|
----------------------------------10-9-|--------------------------------|
----------7--------10-10-10-10-10------|--0-0-0-0-3-0-0-0--0--0-0-2-0---|
--8-8-8-8---8-8-8----------------------|------------------------------3-|

--------------------------|----------------------------|
--------------------------|----------------------------|
--------------------------|--------------------7/5-----|
--0-0--0-0--0-0-----3h5---|--0-0--0-0--0-0---------5h7-|

---------------------------------|---------------------------------|
---------------------------------|---------------------------------|
----------7----------------------|----------7----------------------|
--0-0-0-0---7-7-0--0-3-0-0-0-5-7-|--0-0-0-0---7-7-0--0-3-0-0-0-5-3-|

---------------------------------|---------------------------------|
---------------------------------|-----------------------------5-4-|
----------7----------------------|-------------------7-7-7-7-5-----|
--0-0-0-0---7-7-0--0-3-0-0-0-5-7-|--0-0-0-0-3-0-0-0----------------|

-------------------------------------|--------------------------------|
-------------------------------------|--------------------------------|
----------7--------10-10-10-10-10----|--0-0-0-0-3-0-0-0--0--0-0-2-0---|
--8-8-8-8---8-8-8-----------------8/-|------------------------------3-|

---------------------------------|---------------------------------|
---------------------------------|---------------------------------|
----------7----------------------|----------7--------7-7-7-7-7-----|
--0-0-0-0---7-7-0--0-3-0-0-0-5-7-|--0-0-0-0---7-7-0------------7-7-|

-------------------------|-------------------------|-------------------------|
-------------------------|-------------------------|-------------------------|
---------7---------------|---------7---------------|---------7---------------|
--0-0--0----0-0--0-------|--0-0--0----0-0--0-------|--0-0--0----0-0--0-------|

------------------------------|-------------------|------------------|
------------------------------|-------------------|------------------|
-----------------7-7-7-7-7----|-------------------|------------------|
--0-0--0-0--0-0------------7--|--0----------------|------------------|

------------------|----------------------|-------------------------|
------------------|----------------------|-------------------------|
------------------|--------------12------|---------7---------------|
------------------|-----------------12/--|--0-0--0----0-0--0-------|

-------------------------|-------------------------|
-------------------------|-------------------------|
---------7---------------|---------7---------------|
--0-0--0----0-0--0-------|--0-0--0----0-0--0-------|

------------------------------------|-------------------------|
------------------------------------|-------------------------|
-----------------10---9---7---------|--------------------10-9-|
--0-0--0-0--0-12----0---0---7-10-17-|--8------------8-10------|

------------------------|-------------------------|-------------------------|
---------7--------------|-------------------------|-------------------------|
--0-------------0-2-0---|---------7---------------|-------------------------|
----------------------3-|--0-0--0----0-0--0-------|--0-0--0-0--0-0--0-------|

-------------------------|------------------------------|
-------------------------|------------------------------|
---------7---------------|-----------------7-7-7-7-7----|
--0-0--0----0-0--0-------|--0-0--0-0--0-0------------7/-|

---------------------------------|-------------------------------|
---------------------------5-4---|---------4---------------------|
-------------------7-7-7-7-----7-|--5--5-5---5-5-5--5--5-5-2-2-2-|
--0-0-0-0-3-0-0-0----------------|-------------------------------|

---------------------------------|--------------------------------|
-------------------------5-5-5-5-|------------------------5/7/5-4-|
--2h3-3-3-3---2-3--3-3-3---------|--2h3-3-3-3---2-3--3--3---------|
------------3--------------------|------------3-------------------|

---------------------------------|-------------------------------|
---------------------------5-4---|---------4---------------------|
-------------------7-7-7-7-----7-|--5--5-5---5-5-5--5--5-5-2-2-2-|
--0-0-0-0-3-0-0-0----------------|-------------------------------|

---------------------------------|--------------------------------|
-------------------------5-5-5-5-|--------------------------------|
--2h3-3-3-3---2-3--3-3-3---------|--2h3-3-3-3---2-3--3--3-3-2-0---|
------------3--------------------|------------3-----------------3-|

---------------------------------|-------------------------------|
---------------------------5-4---|---------4---------------------|
-------------------7-7-7-7-----7-|--5--5-5---5-5-5--5--5-5-2-2-2-|
--0-0-0-0-3-0-0-0----------------|-------------------------------|

---------------------------------|--------------------------------|
-------------------------5-5-5-5-|------------------------5/7/5-4-|
--2h3-3-3-3---2-3--3-3-3---------|--2h3-3-3-3---2-3--3--3---------|
------------3--------------------|------------3-------------------|

---------------------------------|-------------------------------|
---------------------------5-4---|---------4---------------------|
-------------------7-7-7-7-----7-|--5--5-5---5-5-5--5--5-5-2-2-2-|
--0-0-0-0-3-0-0-0----------------|-------------------------------|

---------------------------------|--------------------------------|
-------------------------5-5-5-5-|--------------------------------|
--2h3-3-3-3---2-3--3-3-3---------|--2h3-3-3-3---2-3--3--3-3-2-0---|
------------3--------------------|------------3-----------------3-|

------------------|---------------------------------|
------------------|---------------------------------|
------------------|----------7----------------------|
------------------|--0-0-0-0---7-7-0--0-3-0-0-0-5-7-|

---------------------------------|---------------------------------|
---------------------------------|---------------------------------|
----------7----------------------|----------7----------------------|
--0-0-0-0---7-7-0--0-3-0-0-0-5-3-|--0-0-0-0---7-7-0--0-3-0-0-0-5-7-|

---------------------------------|-------------------------------------|
---------------------------------|-------------------------------------|
----------7--------7-7-7-7-7-----|----------7--------10-10-10-10-10----|
--0-0-0-0---7-7-0------------7-7-|--8-8-8-8---8-8-8-----------------8/-|

--------------------------------|--------------------------|
--------------------------------|--------------------------|
--0-0-0-0-3-0-0-0--0--0-0-2-0---|--------------------------|
------------------------------3-|--0-0--0-0--0-0-----3h5---|

----------------------------|---------------------------------|
----------------------------|---------------------------------|
--------------------7/5-----|----------7----------------------|
--0-0--0-0--0-0---------5h7-|--0-0-0-0---7-7-0--0-3-0-0-0-5-7-|

---------------------------------|---------------------------------|
---------------------------------|---------------------------------|
----------7----------------------|----------7----------------------|
--0-0-0-0---7-7-0--0-3-0-0-0-5-3-|--0-0-0-0---7-7-0--0-3-0-0-0-5-7-|

---------------------------------|---------------------------------------|
---------------------------------|----------------------------------10-9-|
----------7--------7-7-7-7-7-----|----------7--------10-10-10-10-10------|
--0-0-0-0---7-7-0------------7-7-|--8-8-8-8---8-8-8----------------------|

--------------------------------|--------------------------|
--------------------------------|--------------------------|
--0-0-0-0-3-0-0-0--0--0-0-2-0---|--------------------------|
------------------------------3-|--0-0--0-0--0-0-----3h5---|

--------------------------|-------------------------|------------------------|
--------------------------|-------------------------|------------------------|
--------------------7-----|---------7---------------|---------7--------------|
--0-0--0-0--0-0-------7/--|--0-0--0----0-0--0-------|--0-0--0----0-0--0------|

-------------------------|---------------------------------|
-------------------------|---------------------------------|
---------7---------------|----------------10---9---7-------|
--0-0--0----0-0--0-------|--0-0--0-0--0-0----0---0---7-5-7-|

------------------------|--------------------|------------------|
------------------------|--------------------|------------------|
------------------------|--------------------|------------------|
--8------------8-10-8-7-|--5------------5----|------------------|

------------------||
------------------||
------------------||
------------------||
comments
We did not receive enough feedback on this tab! Please rate:
print report bad tab
1 2 3 4 5
I want to post or [tab]
guest
You may want to rate the tab now too:
select rating
Please do not post tabs as comments. Select "correction" instead!