Oops, an error
Loading. Please wait.

Ware Yami Tote Bass Tab

ver1
ver1

Whole song

Interactive

More versions @911Tabs.com
511 views 1 this week
no commentswrite comment
1 2 3 4 5
please rate
Autoscroll
+/-
esc
set tempo
stop
Contributor
Hey! There's an official Ultimate Guitar app which is ideal
for learning songs when you're away from computer. Get the app
WARNING: You are trying to view
                                    content from Ultimate-Guitar.com
                                    in an unauthorized application,
                                    which is prohibited.

                                    Please use an official Ultimate
                                    Guitar Tabs application for iPhone,
                                    iPad or Android to access legitimate
                                    chords, guitar, bass, and drum tabs
                                    from Ultimate-Guitar.com database.

                                    Type "ultimate guitar tabs" in Apple
                                    App Store's or Android Market's
                                    search to find the application.
It's official bass score from DIR EN GREY BASS & DRUMS BOOK feat. Toshiya & Shinya.
Enjoy!

 

      H        Q    E   E     H.           E  E     H.           E  E   
B ||-----------------------|---------------------|---------------------|
F#||-----------------------|---------------------|---------------------|
C#||-----------------------|--7------------L-----|------------------7--|
G#||----------------5s--7--|------------------7--|--0------------L-----|
C#||-----------------------|---------------------|---------------------|


  H.           E  E     H.           E   E     H.           E  E   
---------------------|----------------------|---------------------|
---------------------|----------------------|---------------------|
--5------------L-----|--4------------4s--5--|--7------------L-----|
------------------5--|----------------------|------------------7--|
---------------------|----------------------|---------------------|


  W                   H.           E  E     H.           E  E   
-------------------|---------------------|---------------------|
-------------------|---------------------|---------------------|
-------------------|--5------------L-----|---------------------|
--0----------------|------------------5--|--8------------L--7--|
-------------------|---------------------|---------------------|


  H.           E  E     H.           E   E     W                 
---------------------|----------------------|-------------------|
---------------------|----------------------|-------------------|
--7------------L-----|--7------------9--10--|-------------------|
------------------7--|----------------------|--9----------------|
---------------------|----------------------|-------------------|


  W                   H.           E  E     W                 
-------------------|---------------------|-------------------|
-------------------|---------------------|-------------------|
-------------------|--7------------L-----|-------------------|
--8----------------|------------------7--|--0----------------|
-------------------|---------------------|-------------------|


  H.           Q       W                   H.           E  E   
--------------------|-------------------|---------------------|
--------------------|-------------------|---------------------|
--------------------|--5----------------|--7------------L-----|
--3-----------------|-------------------|------------------7--|
---------------3----|-------------------|---------------------|


  W                   H.           Q       W                 
-------------------|--------------------|-------------------|
-------------------|--------------------|-------------------|
-------------------|--------------------|-------------------|
--0----------------|---------------5----|-------------------|
-------------------|--5-----------------|--5----------------|


  W                   W                   W                 
-------------------|-------------------|-------------------|
-------------------|-------------------|-------------------|
-------------------|-------------------|-------------------|
--0----------------|--L----------------|--3----------------|
-------------------|-------------------|-------------------|


  H.           Q       E  E  Q    H           Q    E  E  E  E    Q     
--------------------|----------------------|--------------------------|
--------------------|----------------------|--------------------------|
--------------------|----------------------|--------------------------|
---------------5----|----------------------|----------3---------------|
--5-----------------|--3--3----------------|-------------3--2s--10----|


  E.  S Q    H           E.  S S S E   E  E   Q       E  E  Q    H         
----------------------|----------------------------|----------------------|
----------------------|----------------------------|----------------------|
----------------------|----------------------------|----------------------|
----------------------|-------------------5s--7----|----------------------|
--7---7---------------|--7---7-L---5h--7-----------|--3--3----------------|


  Q    E  E  E  E    Q       H.           E  E     Q.     E  E  E   E  E   
--------------------------|---------------------|-------------------------|
--------------------------|---------------------|-------------------------|
--------------------------|---------------------|-------------------------|
----------3---------------|---------------------|---------------2s--5-----|
-------------3--2s--10----|--5------------L--5--|--6------2--3---------6--|


  H.           E  E     E  E  E  E  E  E  E  E     W                 
---------------------|--------------------------|-------------------|
---------------------|--------------------------|-------------------|
---------------------|-----------------------7--|--5----------------|
---------------------|--------------7-----------|-------------------|
--7------------L--7--|--7--------7-----7--5-----|-------------------|


  H.           E   E     H.           E   E     H.           E  E    
----------------------|----------------------|----------------------|
----------------------|----------------------|----------------------|
----------------------|----------------------|----------------------|
--7------------5s--7--|--8------------8------|----------------------|
----------------------|------------------10--|--0---------------3s--|


  Q.     E  Q    E  E     Q.     E  E  E   E  E     Q     E.   S E  Q    E   
-----------------------|-------------------------|--------------------------|
-----------------------|-------------------------|--------------------------|
-----------------------|-------------------------|--------------------------|
-----------------------|---------------2s--5-----|--------------------------|
--5------5----------5--|--6------2--3---------6--|--7s----2s---7----7----5--|


  Q     E.   S E  Q     E     Q     E.  S E  Q     E   
---------------------------|--------------------------|
---------------------------|--------------------------|
---------------------------|--------------------------|
---------------------------|--------------------------|
--7s----2s---7----7----10--|--5\----0---5----5s----9--|


  Q     E.  S E  E  E  E     Q    E.  S E  Q    E     Q    E  S S E  E  E  E   
--------------------------|------------------------|--------------------------|
--------------------------|------------------------|--------------------------|
--------------------------|------------------------|--------------------------|
--------------------5--7--|--8----3----------------|-------3------------------|
--5\----0---5----5--------|-----------3----3----2--|--3---------3-L--2--3--4--|


  Q     E.  S E  Q    E     Q    E.  S E  E  E  E                           
-------------------------|-------------------------|-------|-------|-------|
-------------------------|-------------------------|-------|-------|-------|
-------------------------|-------------------------|-------|-------|-------|
-------------------------|-------3-----------------|-------|-------|-------|
--5\----0---5----5----3--|--2--------2-L--0--3--2--|-------|-------|-------|


                  H        E   E  E   E     W                 
-------|-------|-------------------------|-------------------|
-------|-------|-------------------------|-------------------|
-------|-------|--------------/7--9------|-------------------|
-------|-------|---------------------10--|--9----------------|
-------|-------|-------------------------|-------------------|


  H.           E  E     H.           E  E     W                 
---------------------|---------------------|-------------------|
---------------------|---------------------|-------------------|
---------------------|--7------------L-----|-------------------|
--8------------L--7--|------------------7--|--0----------------|
---------------------|---------------------|-------------------|


  H.           Q       W                   W                 
--------------------|-------------------|-------------------|
--------------------|-------------------|-------------------|
--------------------|-------------------|-------------------|
---------------5----|-------------------|--0----------------|
--5-----------------|--5----------------|-------------------|


  W                   W                   H.           Q     
-------------------|-------------------|--------------------|
-------------------|-------------------|--------------------|
-------------------|-------------------|--------------------|
--L----------------|--3----------------|---------------5----|
-------------------|-------------------|--5-----------------|


  E  E  Q    H           Q    E  E  E  E    Q       E.  S Q    Q    E  E   
----------------------|--------------------------|------------------------|
----------------------|--------------------------|------------------------|
----------------------|--------------------------|------------------------|
----------------------|----------3---------------|------------------------|
--3--3----------------|-------------3--2s--10----|--7---7--------------7--|


  E.  S S S E   E  E   Q       E  E  Q    H           Q    E  E  E  E    Q     
----------------------------|----------------------|--------------------------|
----------------------------|----------------------|--------------------------|
----------------------------|----------------------|--------------------------|
-------------------5s--7----|----------------------|----------3---------------|
--7---7-L---5h--7-----------|--3--3----------------|-------------3--2s--10----|


  H.           E  E     Q.     E  E  E   E  E     H.           E  E   
---------------------|-------------------------|---------------------|
---------------------|-------------------------|---------------------|
---------------------|-------------------------|---------------------|
---------------------|---------------2s--5-----|---------------------|
--5------------L--5--|--6------2--3---------6--|--7------------L--7--|


  E  E  E  E  E  E  E  E     W                   H.           E   E   
--------------------------|-------------------|----------------------|
--------------------------|-------------------|----------------------|
-----------------------7--|--5----------------|----------------------|
--------------7-----------|-------------------|--7------------5s--7--|
--7--------7-----7--5-----|-------------------|----------------------|


  H.           E   E     H.           E  E      Q.     E  Q    E  E   
----------------------|----------------------|-----------------------|
----------------------|----------------------|-----------------------|
----------------------|----------------------|-----------------------|
--8------------8------|----------------------|-----------------------|
------------------10--|--0---------------3s--|--5------5----------5--|


  Q.     E  E  E   E  E     Q     E.   S E  Q    E   
-------------------------|--------------------------|
-------------------------|--------------------------|
-------------------------|--------------------------|
---------------2s--5-----|--------------------------|
--6------2--3---------6--|--7s----2s---7----7----5--|


  Q     E.   S E  Q     E     Q     E.  S E  Q     E   
---------------------------|--------------------------|
---------------------------|--------------------------|
---------------------------|--------------------------|
---------------------------|--------------------------|
--7s----2s---7----7----10--|--5\----0---5----5s----9--|


  Q     E.  S E  E  E  E     Q    E.  S E  Q    E     Q    E  S S E  E  E  E   
--------------------------|------------------------|--------------------------|
--------------------------|------------------------|--------------------------|
--------------------------|------------------------|--------------------------|
--------------------5--7--|--8----3----------------|-------3------------------|
--5\----0---5----5--------|-----------3----3----2--|--3---------3-L--2--3--4--|


  Q     E.  S E  Q    E     Q      E.  S E  E  E  E     H.           E  E   
-------------------------|---------------------------|---------------------|
-------------------------|---------------------------|---------------------|
-------------------------|---------------------------|---------------------|
-------------------------|------------------2--5--7--|---------------------|
--5\----0---5----5----3--|--2s----14---2-L-----------|--7------------L--7--|


  Q.     E  E  E  E  E     H.           E  E     H.           Q     
------------------------|---------------------|--------------------|
------------------------|---------------------|--------------------|
---------------------7--|--5------------L-----|--------------------|
------------7-----7-----|------------------7--|--------------------|
--7------7-----7--------|---------------------|--5------------5----|


  W                   H.           E  E     H.           E  E   
-------------------|---------------------|---------------------|
-------------------|---------------------|---------------------|
-------------------|---------------------|---------------------|
-------------------|--5------------L-----|---------------------|
--3----------------|------------------3--|--5------------L--5--|


  Q.     E  E  E   E  E     H.           E  E     Q.     E  E  E  E  E   
-------------------------|---------------------|------------------------|
-------------------------|---------------------|------------------------|
-------------------------|---------------------|---------------------7--|
---------------2s--5-----|---------------------|------------7-----7-----|
--6------2--3---------6--|--7------------L--7--|--7------7-----7--------|


  H.           E  E     H.           E  E     W                 
---------------------|---------------------|-------------------|
---------------------|---------------------|-------------------|
--5------------L-----|--7------------------|-------------------|
------------------7--|---------------3-----|-------------------|
---------------------|------------------3--|--3----------------|


  H.           E  E     H.           E  E     Q.     E  E  E   E  E   
---------------------|---------------------|-------------------------|
---------------------|---------------------|-------------------------|
---------------------|---------------------|-------------------------|
--3------------L-----|---------------------|---------------2s--5-----|
------------------3--|--5------------L--5--|--6------2--3---------6--|


  E.  S E  E  E  E  E  S  S    E.  S E  E  E  E  E  S  S  
----------------------------|----------------------------|
----------------------------|----------------------------|
----------------------------|----------------------------|
-----------------------5h-7-|-----------------------1p-0-|
--7---7-L--8--L--x--7-------|--7---7-L--7--L--3--3-------|


  E.  S E  E  E  E  E  S  S    E.  S E  E  E  E  E  S  S  
----------------------------|----------------------------|
----------------------------|----------------------------|
----------------------------|----------------------------|
-----------------------5h-7-|-----------------------1p-0-|
--7---7-L--8--L--x--7-------|--7---7-L--7--L--3--3-------|


  E.  S E  E  E  E  E  S  S    E.  S E  E  E  E  E  S  S  
----------------------------|----------------------------|
----------------------------|----------------------------|
----------------------------|----------------------------|
-----------------------5h-7-|-----------------------1p-0-|
--7---7-L--8--L--x--7-------|--7---7-L--7--L--3--3-------|


  E.  S E  E  E  E  E  S  S    E.  S E  E  E  E  E  S  S  
----------------------------|----------------------------|
----------------------------|----------------------------|
----------------------------|----------------------------|
-----------------------5h-7-|-----------------------1p-0-|
--7---7-L--8--L--x--7-------|--7---7-L--7--L--3--3-------|


    Q.      E   Q.      E     Q.     E   Q.     E     Q.     E  Q.     E   
---------------------------|-----------------------|----------------------|
---------------------------|-----------------------|----------------------|
---------------------------|-----------------------|----------------------|
--/12------12--10------10--|--9------9-------------|----------------------|
---------------------------|------------10------9--|--7------7--5------5--|


  Q.     E    Q     E   E      Q.      E   Q.      E     Q.     E   Q.     E   
---------------------------|--------------------------|-----------------------|
---------------------------|--------------------------|-----------------------|
---------------------------|--------------------------|-----------------------|
-----------------------10--|--12------12--10------10--|--9------9-------------|
--4------4s--10----10------|--------------------------|------------10------9--|


  Q.     E  Q.     E      Q.      E   Q     E  E     H.           E  E   
----------------------|---------------------------|---------------------|
----------------------|---------------------------|---------------------|
----------------------|---------------------------|---------------------|
----------------------|---------------------------|---------------------|
--7------7--9------9--|--10------10--10s----9--9--|--7------------L--7--|


  H        E  E  E  E     H.           Q       Q.     E  Q    Q     
-----------------------|--------------------|----------------------|
-----------------------|--------------------|----------------------|
-----------------------|--------------------|----------------------|
-----------------------|--------------------|---------5--L----2----|
--3--------L--2--3--4--|--5------------5----|--2-------------------|


  H.           E  E     H.           Q        H.           Q     
---------------------|---------------------|--------------------|
---------------------|---------------------|--------------------|
---------------------|---------------------|--------------------|
---------------------|---------------------|--------------------|
--3------------L--3--|--3------------2s----|--5------------5----|


  Q.     E  E  E  E  E     H.           Q       H        E  E  E  E   
------------------------|--------------------|-----------------------|
------------------------|--------------------|-----------------------|
------------------------|--------------------|-----------------------|
------------------2-----|--------------------|-----------------------|
--2------2--3--2-----6--|--7------------7----|--3--------3--2--3--4--|


  H.           Q       Q.     E  E  E  Q        H.           E  E   
--------------------|------------------------|---------------------|
--------------------|------------------------|---------------------|
--------------------|------------------------|---------------------|
---------------5----|---------------5--5\----|---------------------|
--5-----------------|--5------5--5-----------|--3------------L--3--|


  H.           E  E      H.           E  E     Q.     E  E  E   E  E   
----------------------|---------------------|-------------------------|
----------------------|---------------------|-------------------------|
----------------------|---------------------|-------------------------|
----------------------|---------------------|---------------2s--5-----|
--3------------2--2s--|--5------------L--5--|--6------2--3---------6--|


  H.           E  E     Q.     E  E  E  E  E     H.           E  E   
---------------------|------------------------|---------------------|
---------------------|------------------------|---------------------|
---------------------|------------------------|---------------------|
---------------------|---------------------7--|------------------5--|
--7------------L--7--|--9------9--9--9--9-----|--5------------5-----|


  Q.     E  E  Q    E     W                   H.           Q      
-----------------------|-------------------|---------------------|
-----------------------|-------------------|---------------------|
-----------------------|-------------------|---------------------|
-----------------------|-------------------|---------------------|
--5------2--2--5----2--|--3----------------|--3------------2s----|


  H.           Q       Q.     E  E  E   E  E     E  Q.     Q    Q     
--------------------|-------------------------|----------------------|
--------------------|-------------------------|----------------------|
--------------------|-------------------------|----------------------|
--------------------|---------------2s--5-----|----------------------|
--5------------5----|--6------2--3---------6--|--7--7------L----7----|


  Q.     E  E  E  E  E     H.           E  E     H.           Q     
------------------------|---------------------|--------------------|
------------------------|---------------------|--------------------|
---------------------7--|--5------------L-----|--------------------|
------------7-----------|------------------7--|--------------------|
--7------7-----7--5-----|---------------------|--5------------5----|


  W                   H.           Q       H.           E  E   
-------------------|--------------------|---------------------|
-------------------|--------------------|---------------------|
-------------------|--------------------|---------------------|
-------------------|--------------------|---------------------|
--3----------------|--3------------2----|--5------------L--5--|


  Q.     E  E  E  E  E     E  Q.     Q    Q       Q.     E  E  E  E  E   
------------------------|----------------------|------------------------|
------------------------|----------------------|------------------------|
------------------------|----------------------|---------------------7--|
------------------2-----|----------------------|------------7-----------|
--6------2--3--2-----6--|--7--7------L----7----|--7------7-----7--5-----|


  H.           E  E     H.           Q       W                 
---------------------|--------------------|-------------------|
---------------------|--------------------|-------------------|
--5------------L-----|--------------------|-------------------|
------------------7--|--------------------|-------------------|
---------------------|--5------------5----|--3----------------|


  H.           Q       H.           E  E     Q.     E  E  E  E  E   
--------------------|---------------------|------------------------|
--------------------|---------------------|------------------------|
--------------------|---------------------|------------------------|
--------------------|---------------------|------------------2-----|
--3------------2----|--5------------L--5--|--6------2--3--2-----6--|


  E  Q.     Q    Q       Q.     E  E  E  E  E     H.           E  E   
----------------------|------------------------|---------------------|
----------------------|------------------------|---------------------|
----------------------|---------------------7--|--5------------L-----|
----------------------|------------7-----------|------------------7--|
--7--7------L----7----|--7------7-----7--5-----|---------------------|


  H.           Q                                                             
--------------------|-------|-------|-------|-------|-------|-------|-------|
--------------------|-------|-------|-------|-------|-------|-------|-------|
--------------------|-------|-------|-------|-------|-------|-------|-------|
--------------------|-------|-------|-------|-------|-------|-------|-------|
--5------------5----|-------|-------|-------|-------|-------|-------|-------|


-------|-------|-------|-------|-------||
-------|-------|-------|-------|-------||
-------|-------|-------|-------|-------||
-------|-------|-------|-------|-------||
-------|-------|-------|-------|-------||




Duration Legend
---------------
W - whole
H - half
Q - quarter
E - 8th
S - 16th
T - 32nd
X - 64th
. - note dotted
|-n-|  - n-tuplets


Tablature Legend
----------------
L - tied note
x - dead note
g - grace note
(n) - ghost note
> - accentuded note
NH - natural harmonic
AH - artificial harmonic
TH - tapped harmonic
SH - semi harmonic
PH - pitch harmonic
h - hammer on
p - pull off
b - bend
br - bendRelease
pb - preBend
pbr - preBendRelease
brb - bendReleaseBend
\n/ - tremolo bar dip
\n - tremolo bar dive
-/n - tremolo bar Release up
/n\ - tremolo bar inverted dip
/n - tremolo bar return
-\n - tremolo bar Release down
S - shift slide
s - legato slide
/ -  slide into from below or out of upwards
\ -  slide into from above or out of downwards
~ - vibrato
W - wide vibrato
tr - trill
TP - tremolo picking
T - tapping
S - slap
P - pop
< - fade in
^ - brush up
v - brush down
comments
We did not receive enough feedback on this tab! Please rate:
print report bad tab
1 2 3 4 5
I want to post or [tab]
guest
You may want to rate the tab now too:
select rating
Please do not post tabs as comments. Select "correction" instead!