Oops, an error
Loading. Please wait.

Calling Elvis Bass Tab

2,414 views 9 this week
no commentswrite comment
1 2 3 4 5
worth learning
x 1
Autoscroll
+/-
esc
set tempo
stop
Contributor
WARNING: You are trying to view
                                    content from Ultimate-Guitar.com
                                    in an unauthorized application,
                                    which is prohibited.

                                    Please use an official Ultimate
                                    Guitar Tabs application for iPhone,
                                    iPad or Android to access legitimate
                                    chords, guitar, bass, and drum tabs
                                    from Ultimate-Guitar.com database.

                                    Type "ultimate guitar tabs" in Apple
                                    App Store's or Android Market's
                                    search to find the application.
               
                               Calling Elvis
                               Dire Straits
                              On Every Sreet

                                              Words & music by Mark Knopfler


     E  T S. E.  S E.  T T E.  S  
G||------------------------------|
D||------------------------------|
A||--2--L----------2---L---------|
E||----------2-------------2-----|

  E.  S E  T S. E.  S S S E     E.  S E  T S. E.  S E  S. T  
-----------------------------|------------------------------|
-----------------------------|------------------------------|
--2-------------2---------0--|--2-------------2--------2----|
--------2--L----------2------|--------2--L----------2-------|

  E  T S. E  T S. E.  S E  E     E  T S. E  T S. E  T S. E  S S  
------------------------------|---------------------------------|
------------------------------|---------------------------------|
--2--L------------2--------0--|--2--L------------2--L-------2---|
----------2--L----------2-----|----------2--L------------2------|

  E  T S. E  E  E.  S S S E     E  T S. E  T S. E.  S E  S S  
-----------------------------|-------------------------------|
-----------------------------|-------------------------------|
--2--L----------2---------0--|--2--L------------2--------2---|
----------2-----------2------|----------2--L----------2------|

  E  T S. E  T S. E  T S. E  E       E  T S. E  T S. E  T S. E  S S  
--------------------------------||----------------------------------|
--------------------------------||*---------------------------------|
--2--L------------2--L-------0--||*--2--L------------2--L-------2---|
----------2--L------------2-----||-----------2--L------------2------|

  E.  S E  T S. E.  T T S. T E     E  T S. E  T S. E  T S. S. T S S  
--------------------------------|-----------------------------------|
--------------------------------|-----------------------------------|
--2-------------2---L--------0--|--2--L------------2--L---------2---|
--------2--L------------2-------|----------2--L------------2--------|

  E  T S. E  T S. E.  T T S. T E     E  T S. E  T S. E  T S. E  S S  
----------------------------------|---------------------------------|
----------------------------------|---------------------------------|
--2--L------------2---L--------0--|--2--L------------2--L-------2---|
----------2--L------------2-------|----------2--L------------2------|

  E  T S. E  T S. E.  T T S. T E     E.  S E  T S. E.  S E  S S  
----------------------------------|-----------------------------|
----------------------------------|-----------------------------|
--2--L------------2---L--------0--|--2-------------2--------2---|
----------2--L------------2-------|--------2--L----------2------|

  E  T S. E  E  E  T S. S. T E     E  T S. E  T S. E  T S. E.  S  
--------------------------------|--------------------------------|
--------------------------------|--2--L------------0--L----------|
--2--L----------2--L---------2--|----------2--L------------2-----|
----------2-------------2-------|--------------------------------|

  E.  S E  T S. E.  S E.  S    E.  S E.  S E.  S E.  S  
----------------------------|--------------------------|
--2-------------0-----------|--2-----------0-----------|
--------2--L----------2-----|--------2-----------2-----|
----------------------------|--------------------------|

  E.  S E.  S E.  S E  T S.    E  T S. E.  S E.  S E.  S  
----------------------------|----------------------------|
--2-----------0-------------|--2--L----------0-----------|
--------2-----------2--L----|----------2-----------2-----|
----------------------------|----------------------------|

  E  T S. E  T S. E  T S. E.  S    E  T S. E.  S E.  S S. T S. T  
--------------------------------|--------------------------------|
--2--L------------0--L----------|--2--L----------0----------2----|
----------2--L------------2-----|----------2-----------2---------|
--------------------------------|--------------------------------|

  E  T S. E  T S. T S. E  E  E     E  E  E  T S. E.  S E  S S  
--------------------------------|-----------------------------|
--4--L------------4----4--2--0--|-----------------------------|
----------4--L------------------|--2-------------2--------2---|
--------------------------------|--------2--L----------2------|

  E  T S. E  T S. E  T S. E  E     E  T S. E  E  E  T S. E  S. T  
--------------------------------|--------------------------------|
--------------------------------|--------------------------------|
--2--L------------2--L-------0--|--2--L----------2--L-------2----|
----------2--L------------2-----|----------2-------------2-------|

  E.  S E  T S. E.  S S. T E     E  T S. E  T S. E  T S. E  S S  
------------------------------|---------------------------------|
------------------------------|---------------------------------|
--2-------------2----------0--|--2--L------------2--L-------2---|
--------2--L----------2-------|----------2--L------------2------|

  E.  S E  T S. E  T S. S. T E     E  T S. E  T S. E  T S. E  T S.  
--------------------------------|----------------------------------|
--------------------------------|----------------------------------|
--2-------------2--L---------0--|--2--L------------2--L-------2----|
--------2--L------------2-------|----------2--L------------2-------|

  E.  S E.  T T E.  S S. T E     E.  S E  T S. E  T S. E.  S  
------------------------------|------------------------------|
------------------------------|------------------------------|
--2-------------2----------0--|--2-------------2--L----------|
--------2---L---------2-------|--------2--L------------2-----|

  E  T S. E  T S. E  T S. S S E     E  T S. E  T S. E.  S S. T T S.  
---------------------------------|----------------------------------|
---------------------------------|----------------------------------|
--2--L------------2--L--------0--|--2--L------------2----------2----|
----------2--L------------2------|----------2--L----------2---------|

  E  T S. E  T S. E  E  S S E     E.  S E.  S E  T S. E  T S.  
-------------------------------|------------------------------|
-------------------------------|------------------------------|
--2--L------------2---------0--|--2-----------2--L-------2----|
----------2--L----------2------|--------2-------------2-------|

  E.  S E  E  E  T S. S. T E     E.  S E.  S E  T S. E  T S.  
------------------------------|------------------------------|
------------------------------|------------------------------|
--2-----------2--L---------0--|--2-----------2--L------------|
--------2-------------2-------|--------2-------------2--L----|

  E  T S. E  T S. E  E  S S E       E  T S. E  T S. E  E  E  S S  
-------------------------------||--------------------------------|
-------------------------------||*-------------------------------|
--2--L------------2---------0--||*--2--L------------2--------2---|
----------2--L----------2------||-----------2--L----------2------|

  E  T S. E  T S. E  E  S. T E     E  T S. E  T S. E  T S. E  T S.  
--------------------------------|----------------------------------|
--------------------------------|----------------------------------|
--2--L------------2----------0--|--2--L------------2--L-------2----|
----------2--L----------2-------|----------2--L------------2-------|

  E  T S. E  T S. E  T S. S S E     E  T S. E  T S. E  T S. S. T S S  
---------------------------------|-----------------------------------|
---------------------------------|-----------------------------------|
--2--L------------2--L--------0--|--2--L------------2--L---------2---|
----------2--L------------2------|----------2--L------------2--------|

  E  T S. E  T S. E.  S S. T E     E  T S. E  T S. E  T S. S. T S S  
--------------------------------|-----------------------------------|
--------------------------------|-----------------------------------|
--2--L------------2----------0--|--2--L------------2--L---------2---|
----------2--L----------2-------|----------2--L------------2--------|

  E.  S E  T S. E  T S. S. T E     E  T S. E  T S. E.  S E.  S  
--------------------------------|------------------------------|
--------------------------------|--2--L------------0-----------|
--2-------------2--L---------2--|----------4-------------2-----|
--------2--L------------2-------|----------7--L----------------|

  E.  S E  T S. E.  S E.  S    E.  S E  T S. E  T S. E  T S.  
----------------------------|--------------------------------|
--2-------------0-----------|--2-------------0--L------------|
--------2--L----------2-----|--------2--L------------2--L----|
----------------------------|--------------------------------|

  E.  S E  T S. E  T S. E.  S    E.  T T E.  S E.  S E.  S  
------------------------------|----------------------------|
--2-------------0--L----------|--2---L---------0-----------|
--------2--L------------2-----|----------2-----------2-----|
------------------------------|----------------------------|

  E.  S E  T S. E.  S E  T S.    E.  S E.  S E  T S. E  S. T  
------------------------------|------------------------------|
--2-------------0-------------|--2-----------0--L-------2----|
--------2--L----------2--L----|--------2-------------2-------|
------------------------------|------------------------------|

  E  T S. E.  T T T S. S. T E  E     E  E  E  T S. E  T S. E  E   
----------------------------------|------------------------------|
--4--L------------4----4----2--0--|------------------------------|
----------4---L-------------------|--2-------------2--L-------0--|
----------------------------------|--------2--L------------2-----|

  E  T S. E  T S. E  E  E  E     E  T S. E  T S. E  T S. S. T S. T  
------------------------------|------------------------------------|
------------------------------|------------------------------------|
--2--L------------2--------0--|--2--L------------2--L---------2----|
----------2--L----------2-----|----------2--L------------2---------|

  E  T S. E  E  E  T S. S. T E     E.  S E  T S. E  T S. E  T S.  
--------------------------------|--------------------------------|
--------------------------------|--------------------------------|
--2--L----------2--L---------0--|--2-------------2--L-------2----|
----------2-------------2-------|--------2--L------------2-------|

  E  T S. E  E  E  T S. S. T E     E  T S. E  T S. E.  T T E  T S.  
--------------------------------|----------------------------------|
--------------------------------|----------------------------------|
--2--L----------2--L---------0--|--2--L------------2---L------2----|
----------2-------------2-------|----------2--L------------2-------|

  E  T S. E  T S. E.  S S. T E     S. H.          E  T    W                 
--------------------------------|-----------------------|-----------|
--------------------------------|-----------------------|-----------|
--2--L------------2----------0--|--2--------------------|-----------|
----------2--L----------2-------|-----------------------|-----------|

  E.  S E  T S. E.  S E  E     E  T S. E.  S E  T S. E  E   
----------------------------|------------------------------|
----------------------------|------------------------------|
--2-------------2--------0--|--2--L----------2--L-------0--|
--------2--L----------2-----|----------2-------------2-----|

  E  T S. E  T S. E.  S S. T S S    E  T S. E  T S. E  E  S S E   
---------------------------------|-------------------------------|
---------------------------------|-------------------------------|
--2--L------------2----------2---|--2--L------------2---------0--|
----------2--L----------2--------|----------2--L----------2------|

  E  T S. E  T S. E  T S. E  T S.    E  T S. E  T S. E  T S. S. T E   
----------------------------------|----------------------------------|
----------------------------------|----------------------------------|
--2--L------------2--L-------2----|--2--L------------2--L---------0--|
----------2--L------------2-------|----------2--L------------2-------|

  E  T S. E  T S. E.  S E  S S    E  T S. E  T S. E  T S. S. T E   
-------------------------------|----------------------------------|
-------------------------------|----------------------------------|
--2--L------------2--------2---|--2--L------------2--L---------0--|
----------2--L----------2------|----------2--L------------2-------|

  E.  S E.  T T E  T S. S. T S S    E.  S E  T S. E  T S. S S E   
---------------------------------|-------------------------------|
---------------------------------|-------------------------------|
--2-------------2--L---------2---|--2-------------2--L--------0--|
--------2---L-----------2--------|--------2--L------------2------|

  E  T S. E  T S. E  T S. S. T T S.    E  T S. E  T S. E.  T T S. T E   
------------------------------------|----------------------------------|
------------------------------------|----------------------------------|
--2--L------------2--L---------2----|--2--L------------2---L--------0--|
----------2--L------------2---------|----------2--L------------2-------|

  E.  S E  T S. E  T S. E  E     E  T S. E  E  E  T S. S. T S S  
------------------------------|---------------------------------|
------------------------------|---------------------------------|
--2-------------2--L----------|--2--L----------2--L---------2---|
--------2--L------------2-----|----------2-------------2--------|

  E  T S. E  T S. E  T S. E  E     E.  S E  T S. E.  S S. T E   
--------------------------------|------------------------------|
--------------------------------|------------------------------|
--2--L------------2--L-------0--|--2-------------2----------0--|
----------2--L------------2-----|--------2--L----------2-------|

  E  T S. E  T S. E.  T T S S S S    E.  S E  T S. E.  S S S E   
----------------------------------|-----------------------------|
----------------------------------|-----------------------------|
--2--L------------2---L-------2---|--2-------------2---------0--|
----------2--L------------2-------|--------2--L----------2------|

  E  T S. E  T S. E.  S S. T S S    E.  S E  T S. E  T S. S. T E   
---------------------------------|--------------------------------|
---------------------------------|--------------------------------|
--2--L------------2----------2---|--2-------------2--L---------0--|
----------2--L----------2--------|--------2--L------------2-------|

    E  T S. E  E  E  T S. E  S S    E  T S. E  T S. E.  S S S E   
|--------------------------------|-------------------------------|
|*-------------------------------|-------------------------------|
|*--2--L----------2--L-------2---|--2--L------------2---------0--|
|-----------2-------------2------|----------2--L----------2------|

  E  T S. E  T S. E.  S E  T S.    E  T S. E  E  E  T S. S S E   
--------------------------------|-------------------------------|
--------------------------------|-------------------------------|
--2--L------------2--------2----|--2--L----------2--L--------0--|
----------2--L----------2-------|----------2-------------2------|

  E  T S. E  T S. E.  S E  S S    E.  S E  T S. E  T S. S. T E   
-------------------------------|--------------------------------|
-------------------------------|--------------------------------|
--2--L------------2--------2---|--2-------------2--L---------0--|
----------2--L----------2------|--------2--L------------2-------|

  E  T S. E  T S. E  T S. S. T S. T    E  T S. E  T S. E  T S. S. T E   
------------------------------------|----------------------------------|
------------------------------------|----------------------------------|
--2--L------------2--L---------2----|--2--L------------2--L---------0--|
----------2--L------------2---------|----------2--L------------2-------|

  E  T S. E  T S. E  E  E  S S    E  E  E  T S. E.  S S S E   
-------------------------------|-----------------------------|
-------------------------------|-----------------------------|
--2--L------------2--------2---|--2-------------2---------0--|
----------2--L----------2------|--------2--L----------2------|

  E.  S E.  S E  T S. S. T S S    E  T S. E  T S. E  T S. S. T E   
-------------------------------|----------------------------------|
-------------------------------|----------------------------------|
--2-----------2--L---------2---|--2--L------------2--L---------0--|
--------2-------------2--------|----------2--L------------2-------|

  E  T S. E  T S. E  T S. E  S S    E  T S. S E.  E.  S S S E   
---------------------------------|-----------------------------|
---------------------------------|-----------------------------|
--2--L------------2--L-------2---|--2--L----------2---------0--|
----------2--L------------2------|----------2-----------2------|

  E  T S. Q    E  T S. S. T S S    E  T S. E  E  S. E  T S S E   
--------------------------------|-------------------------------|
--------------------------------|-------------------------------|
--2--L---------2--L---------2---|--2--L----------2-----------0--|
----------2------------2--------|----------2-------------2------|

  E  T S. E  T S. E.  S E.  S    E  T S. E.  S E  T S. E  E   
------------------------------|------------------------------|
------------------------------|------------------------------|
--2--L------------2-----------|--2--L----------2--L-------0--|
----------2--L----------2-----|----------2-------------2-----|

  E  T S. E  T S. E.  S E  S S    E.  S E  T S. E  T S. S. T E   
-------------------------------|--------------------------------|
-------------------------------|--------------------------------|
--2--L------------2--------2---|--2-------------2--L---------0--|
----------2--L----------2------|--------2--L------------2-------|

  E.  S E  E  E.  T T E  S S    E.  S E.  S E.  S S. T E   
-----------------------------|----------------------------|
-----------------------------|----------------------------|
--2-----------2---L------2---|--2-----------2----------0--|
--------2-------------2------|--------2-----------2-------|

  E.  S E.  S E  T S. S. T T S.    E.  T T E  T S. E.  S S. T E   
--------------------------------|--------------------------------|
--------------------------------|--------------------------------|
--2-----------2--L---------2----|--2---L-----------2----------0--|
--------2-------------2---------|----------2--L----------2-------|

  E.  S E  T S. E.  S S. T S S    E.  S E.  S E.  S S. T E   
-------------------------------|----------------------------|
-------------------------------|----------------------------|
--2-------------2----------2---|--2-----------2----------0--|
--------2--L----------2--------|--------2-----------2-------|

  E  T S. E.  S E.  S S. T T S.    E.  S E.  S E.  S S. T E   
--------------------------------|----------------------------|
--------------------------------|----------------------------|
--2--L----------2----------2----|--2-----------2----------0--|
----------2-----------2---------|--------2-----------2-------|

  E.  T T E  T S. E  T S. S S S S    E  T S. E.  S E.  T T S. T E   
----------------------------------|--------------------------------|
----------------------------------|--------------------------------|
--2---L-----------2--L--------2---|--2--L----------2---L--------0--|
----------2--L------------2-------|----------2-------------2-------|

  E.  T T E.  S E.  T T E  E     W                   W                 
------------------------------|-------------------|-------------------|
------------------------------|-------------------|-------------------|
--2---L---------2---L------0--|--2----------------|-------------------|
----------2-------------2-----|-------------------|-------------------|

  W                   W                   W                  
-------------------|-------------------|-------------------||
-------------------|-------------------|-------------------||
-------------------|-------------------|--2----------------||
-------------------|-------------------|-------------------||

Duration Legend
---------------
W - whole
H - half
Q - quarter
E - 8th
S - 16th
T - 32nd
X - 64th
. - note dotted
|-n-|  - n-tuplets

Tablature Legend
----------------
L - tied note
x - dead note
(n) - ghost note
> - accentuded note
h - hammer on
p - pull off
b - bend
/ -  slide into from below or out of upwards
\ -  slide into from above or out of downwards
~ - vibrato
tr - trill
^ - brush up
comments
We did not receive enough feedback on this tab! Please rate:
print report bad tab
1 2 3 4 5
I want to post or [tab]
guest
You may want to rate the tab now too:
select rating
Please do not post tabs as comments. Select "correction" instead!