Oops, an error
Loading. Please wait.

Portobello Belle Tab

ver1
ver1

Whole song

More versions @911Tabs.com
6,312 views 9 this week
no commentswrite comment
1 2 3 4 5
excellent!
x 2
Autoscroll
+/-
esc
set tempo
stop
Contributor
WARNING: You are trying to view
                                    content from Ultimate-Guitar.com
                                    in an unauthorized application,
                                    which is prohibited.

                                    Please use an official Ultimate
                                    Guitar Tabs application for iPhone,
                                    iPad or Android to access legitimate
                                    chords, guitar, bass, and drum tabs
                                    from Ultimate-Guitar.com database.

                                    Type "ultimate guitar tabs" in Apple
                                    App Store's or Android Market's
                                    search to find the application.
Dire Straits - Portobello Belle
Transcripted by Stefan Arheilger

I found only the chords here, so I made myself up a "little" tab...
but on and on I found out, that is very difficult .... however I worked
long on this "little" stuff... but I think know it is good enough and it sounds nearly  right.... so enjoy 

Standart tuning
Tempo: Quarter = somewhere between 120-130 *g* (fast)
Key: bB-major (be, bb)
Capo: F (Mark normaly plays without capo...)
Tab is relativ to Capo

h = hammer on
p = pull of
b = break

Guitar1
*******
Guitar2


Intro:
    1   &   2   &   3   &   4   &   1 & 2 & 3 & 4 &   1 & 2 & 3 & 4 &   1 & 2 & 3 & 4 & 
E||-------------------------------|-----------------|-----------------|-----------------||
B||-------------------------------|-----------------|-----------------|-----------------||
G||-------------------------------|-----------------|-----------------|-----------------||
D||-0---0---b---0-0-----0---------|-------------0---|-2-2-b-----------|---------2-------||
A||-----------------4-------2---4-|-0-0-b-0-4-4----5|-----------------|-4-4--444--4-0-0-||
E||-------------------------------|---------------4-|-------------4-44|-----------------||
******************************************************************************************
E||-------------------------------|-----------------|-----------------|-----------------||
B||-3-------3---3-------3---3---2r|-------5-----5-5-|-------5-----5---|-----------------||
G||-2-------2---2-------2---2---2r|-----2-4h5---4-2-|-------4-----4p2-|---4s2-5s7--5--2s||
D||-4-------4---4-------4---4---2r|-----------------|-----------------|---4s2-4s6--4--2s||
A||-------------------------------|-----------------|-----------------|-4---------------||
E||-------------------------------|-----------------|-----------------|-----------------||

E||-----------------|-----------------|-----------------|-----b-----------||
B||-----------------|-----------------|-----------------|-----b-----------||
G||-----------------|-----------------|-----------------|-----b-----------||
D||-0-0-------0-----|-------------0-00|-----------------|-----b-----------||
A||---------4---2-4-|-0---0-0-4-4-----|-2-2-2-2-b---2-22|-0-0-b-----------||
E||-----4-44--------|-----------------|-----------------|-----b-----------||
****************************************************************Belladonn's on the
E||---------2p0-----|-----------------|-----------------|-----------------||
B||s3---5---3---3---|---------5--2----|-------------5p2-|-2---------------||
G||s4---4---------4-|-2---2-4-4--2--2-|-------5-----4p2-|-2---------------||
D||-------4---------|-2---2-4-------2-|-4---4-----------|-2---------------||
A||-----------------|-----------------|---2-----2-------|-----------------||
E||-----------------|-----------------|-----------------|-----------------||


Verse Riff:
E||-----------------|-----------------|-----------------|-------------0---||
B||-3-----3---5-3p2-|---3-2-----------|-------3---5---2-|-------2-------2-||
G||-2---------2-----|-----------4p2-4s|-2-------------2-|-2s4-2-----------||
D||-4---4-------4p2-|---4-2-----4-4-4s|-2---4-------4-2-|-2s4-2-----------||
A||-----------------|-0---------------|-----------------|-----------------||
E||-----------------|-----------------|-----------------|-----------------||
****high street***************breast upon*********************and the*******
E||-----------------|-----------------|-----------0-----|-----------------||
B||-3---3-3---3-3-3-|-2-2-2-2---2-2-2-|-3---3-3-----3-2-|-2---2-2---2-2-2-||
G||-2---2-2---2-2-2-|-2-2-2-2---2-2-2-|-2---2-2-----2-2-|-2---2-2---2-2-2-||
D||-4---4-4---4-4-4-|-2-2-2-2---2-2-2-|-4---4-4-----4-2-|-2---2-2---2-2-2-||
A||-----------------|-----------------|-----------------|-----------------||
E||-----------------|-----------------|-----------------|-----------------||


E||-----------0-----|-----------------|-----------------|-----------------||
B||-3---3-3-----3p2-|-----2-------2---|-3-----3-----3p2-|-2-----2---------||
G||-2---2-2-----2---|-2p4-2-2---2-2-2-|-2-----------2---|-2---4-2-----4p2-||
D||-4---4-4-----4p2-|-2p4-2-2---2---2-|-4---4-------4p2-|-2---4-2-----2---||
A||-----------------|-----------------|-----------------|-----------------||
E||-----------------|-----------------|-----------------|-----------------||
****slide shows*************Victoriana's********************Yeag she got****
E||-----------0-----|-----------------|-----------0-----|-----------------||
B||-3---3-3-----3-2-|-2---2-2---2-2-2-|-3---3-3-----3-2-|-2---2-2---2-2-2-||
G||-2---2-2-----2-2-|-2---2-2---2-2-2-|-2---2-2-----2-2-|-2---2-2---2-2-2-||
D||-4---4-4-----4-2-|-2---2-2---2-2-2-|-4---4-4-----4-2-|-2---2-2---2-2-2-||
A||-----------------|-----------------|-----------------|-----------------||
E||-----------------|-----------------|-----------------|-----------------||


E||-----------------|-----------------|-----------0-----|-----------------||
B||-3-----3-----3p2-|-2---------------|-3-----3-----3p2-|-----------------||
G||-2---------------|-----4p2-----4p2-|-2---------------|-----------------||
D||-4---4-------4p2-|-2---4p2-----4p2-|-4---4-------4p2-|-2---4-2-----2---||
A||-----------------|-----------------|-----------------|-----------------||
E||-----------------|-----------------|-----------------|-----------------||
****now*********************she wanna***********************and she wanna***
E||-----------0-----|-----------------|-----------0-----|-----------------||
B||-3---3-3-----3-2-|-2---2-2---2-2-2-|-3---3-3-----3-2-|-2---2-2---2-2-2-||
G||-2---2-2-----2-2-|-2---2-2---2-2-2-|-2---2-2-----2-2-|-2---2-2---2-2-2-||
D||-4---4-4-----4-2-|-2---2-2---2-2-2-|-4---4-4-----4-2-|-2---2-2---2-2-2-||
A||-----------------|-----------------|-----------------|-----------------||
E||-----------------|-----------------|-----------------|-----------------||

                                                    **pull off
E||-----------0-----|-----------------|---------0-0-**--|-----------------||
B||-3-----3-----3p2-|-2-----2---------|-3-----------322-|-----2-5-7---2---||
G||-2---------------|-2---4-2---------|-2-----------2-2-|---4-2-4s6-2-2---||
D||-4---4-------4p2-|-2---4-2---------|-4-----------422-|---4-2-------2---||
A||-----------------|-----------------|-------------**--|-----------------||
E||-----------------|-----------------|-----------------|-----------------||
****now*****************she got***************boot now.*********************
E||-----------0-----|-----------------|-----------0-----|-----------------||
B||-3---3-3-----3-2-|-2---2-2---2-2-2-|-3---3-3-----3-2-|-2---------------||
G||-2---2-2-----2-2-|-2---2-2---2-2-2-|-2---2-2-----2-2-|-2---------------||
D||-4---4-4-----4-2-|-2---2-2---2-2-2-|-4---4-4-----4-2-|-2---------------||
A||-----------------|-----------------|-----------------|-----------------||
E||-----------------|-----------------|-----------------|-----------------||

                                                    **pull off
E||---------------5-|-----------------|-----------------|-----------------||
B||-3--3--3-3-5-7-7-|-3--3--3-----3-3-|-------------**2-|---5---5---------||
G||-2--2--2-2-7-7-7-|-2--2--2-----2-2-|-4--44p2-2---2-2-|-2-2---4p2-4p2-2-||
D||-4--4--4-4-------|-4--4--4-----2-2-|-----2-----2-422-|---------------2-||
A||-----------------|-----------------|-4-----------**--|-4---------------||
E||-----------------|-----------------|-----------------|-----------------||
****She thinks**********She ain't*********************************She*******
E||-----------0-----|-----------------|-----------0-----|-----------------||
B||-3---3-3-----3-2-|-2---2-2---2-2-2-|-3---3-3-----3-2-|-2---2-2---2-2-2-||
G||-2---2-2-----2-2-|-2---2-2---2-2-2-|-2---2-2-----2-2-|-2---2-2---2-2-2-||
D||-4---4-4-----4-2-|-2---2-2---2-2-2-|-4---4-4-----4-2-|-2---2-2---2-2-2-||
A||-----------------|-----------------|-----------------|-----------------||
E||-----------------|-----------------|-----------------|-----------------||


E||-------2---2-2-5-|-----5-5---------|-5--5------------|-----------------||
B||-------3---3-3-3-|-----3-3-3p5h2p3-|-----4-5p2-----2-|---5---5p2---2---||
G||---3---2---2-2-2-|---2-2-2---------|-2-224-4p2-2s4-2-|---4---4p2p4-2---||
D||-4-2---4---------|-4---------------|-2-222-----2s4---|-------------2---||
A||-----------------|-----------------|-----------------|-----------------||
E||-----------------|-----------------|-----------------|-----------------||
******but the*********He's**************************************************
E||-----------------|-----------------|-----------------|-----------------||
B||-3---3-3---3-3-3-|---3-3-3---3-3-3-|-2---2-2---2-2-2-|-----------------||
G||-2---2-2---2-2-2-|---2-2-2---2-2-2-|-2---2-2---2-2-2-|---5---5p2---2-2-||
D||-4---4-4---4-4-4-|---4-4-4---4-4-4-|-2---2-2---2-2-2-|---4---4p2---2-2-||
A||-----------------|-----------------|-----------------|-----------------||
E||-----------------|-----------------|-----------------|-----------------||

                                              **pull off    **pull off
E||-----------------|-----5-5---------|-------**--------|---**------------||
B||-5-5---5-----3---|-3---7-7---------|-2-----2---------|---52--2-3-5-2-2-||
G||-4---4-4-----2---|-2---7-7---------|-2---4-42----4-2-|---422-----------||
D||-5-----5-----4---|-4---------------|-2-----2-2---4-2-|-----2-2-4---2---||
A||-----------------|-----------------|-------**--------|---**------------||
E||-----------------|-----------------|-----------------|-----------------||
**********do a song*************Irish girl**********************************
E||-----------------|-----------------|-----------------|-----------------||
B||-5-5-5-5-----3-3-|-3---3-3---3-3-3-|-2-----2-2-------|---5---5-3---2---||
G||-4-4-4-4-----2-2-|-2---2-2---2-2-2-|-2-----2-2---4s2-|---2---2-4---2---||
D||-5-5-5-5-----4-4-|-4---4-4---4-4-4-|-2-----2-2---4s2-|-----------------||
A||-----------------|-----------------|-----------------|-----------------||
E||-----------------|-----------------|-----------------|-----------------||

                                       
E||-----------------|---------0-------||
B||-5---------------|-----5p3-----3---||
G||-4-----4---------|---2-2-----------|| End of Verse Riff
D||-5---6-----------|-4-4-------------||
A||---2-----2-------|-----------------||
E||-----------------|-----------------||
**********but I*********************my


First End
E||-----------------|-----------------||
B||-------2---------|-----------------||
G||-2---4-2---4p2-4p|-2---------------||
D||-2---------4p2-4p|-2---------------||
A||-----------------|-----------------||
E||-----------------|-----------------||
****Portobello bella**She sees**********
E||-----------------|-----------------||
B||-----------------|-----------------||
G||-2---4-2---------|-----------------||
D||-2---4-2---------|-----------------||
A||-----------------|-----------------||
E||-----------------|-----------------||


PLAY VERSE RIFF

2nd End/Bridge:
E||-----------------|-----------------|-----------------|-----------------||
B||-------2---------|-----------------|-3---3-3-3-333-2-|-2-------2-------||
G||-2---4-4---4s2-4s|s2---------------|-2---2-2-2-422-2-|-2-2p4-2-2-2p4-2-||
D||-2-2-4-2---4s2-4s|s2---------------|-4---4-4-4-444-2-|-2-2p4-2---2p4-2-||
A||-----4---------0-|-0---------------|-----------------|-----------------||
E||-----------------|-----------------|-----------------|-----------------||
****Portobello belle****Yes and*********************************and a*******
E||-----------------|-----------------|-----------0-----|-----------------||
B||-----------------|-----------------|-3---3-3-----3-2-|-2---2-2---2-2-2-||
G||-2r--------------|-----------------|-2---2-2-----2-2-|-2---2-2---2-2-2-||
D||-2r--------------|-----------------|-4---4-4-----4-2-|-2---2-2---2-2-2-||
A||-----------------|-----------------|-----------------|-----------------||
E||-----------------|-----------------|-----------------|-----------------||


E||-----------------|-----------------|-----------------|-----------------||
B||-3---3-3-3-333-2-|-2-------2-------|-3---3-3-333-3-2-|-2-------2-------||
G||-2---2-2-2-422-2-|-2-2p4-2-2-2p4-2-|-2---2-2-422-2-2-|-2-2p4-2-2-2p4-2-||
D||-4---4-4-4-444-2-|-2-2p4-2---2p4-2-|-4---4-4-444-4-2-|-2-2p4-2---2p4-2-||
A||-----------------|-----------------|-----------------|-----------------||
E||-----------------|-----------------|-----------------|-----------------||
****squawking.**********upon a**********rhino***************she get*********
E||-----------0-----|-----------------|-----------0-----|-----------------||
B||-3---3-3-----3-2-|-2---2-2---2-2-2-|-3---3-3-----3-2-|-2---2-2---2-2-2-||
G||-2---2-2-----2-2-|-2---2-2---2-2-2-|-2---2-2-----2-2-|-2---2-2---2-2-2-||
D||-4---4-4-----4-2-|-2---2-2---2-2-2-|-4---4-4-----4-2-|-2---2-2---2-2-2-||
A||-----------------|-----------------|-----------------|-----------------||
E||-----------------|-----------------|-----------------|-----------------||


E||-----------------|-----------------|-----------------|-----------------||
B||-3---3-3-3-333-2-|-2-------2-------|-----------------|-----------------||
G||-2---2-2-2-422-2-|-2-2p4-2-2-2p4-2-|-----------------|-----------------||
D||-4---4-4-4-444-2-|-2-2p4-2---2p4-2-|-0-0---00--0-----|---------------00||
A||-----------------|-----------------|---------4---2-4-|-0-0-------------||
E||-----------------|-----------------|-----------------|-----------------||
****a wino************then she******************************Beladona's******
E||-----------0-----|-----------------|-----------0-----|-----------------||
B||-3---3-3-----3-2-|-2---2-2---2-2-2-|-3---3-3-----3-2-|-2---2-2---2-2-2-||
G||-2---2-2-----2-2-|-2---2-2---2-2-2-|-2---2-2-----2-2-|-2---2-2---2-2-2-||
D||-4---4-4-----4-2-|-2---2-2---2-2-2-|-4---4-4-----4-2-|-2---2-2---2-2-2-||
A||-----------------|-----------------|-----------------|-----------------||
E||-----------------|-----------------|-----------------|-----------------||


E||-----------------|-----------------|-----------------|-----------------||
B||-----------------|-----------------|-----------------|-----------------||
G||-----------------|-----------------|-----------------|-----------------||
D||-------00--0-----|-------222-------|-0-0---00--0-----|---------------00||
A||-0-0-----4---2-4-|-0-0-------------|---------4---2-4-|-0-0-------------||
E||-----------------|-----------------|-----------------|-----------------||
****jungle****************Bu she********flower************there ain't*******
E||-----------0-----|-----------------|-----------0-----|-----------------||
B||-3---3-3-----3-2-|-2---2-2---2-2-2-|-3---3-3-----3-2-|-2---2-2---2-2-2-||
G||-2---2-2-----2-2-|-2---2-2---2-2-2-|-2---2-2-----2-2-|-2---2-2---2-2-2-||
D||-4---4-4-----4-2-|-2---2-2---2-2-2-|-4---4-4-----4-2-|-2---2-2---2-2-2-||
A||-----------------|-----------------|-----------------|-----------------||
E||-----------------|-----------------|-----------------|-----------------||


E||-----------------|-----------------||
B||-----------------|---------------2-||
G||---------------2-|---4-2---------2-||
D||-0-0---00--0---2-|---4-2-----2p4-2-||
A||---------4-----0-|-------2s4-------||
E||-----------------|-----------------||
****tower, no, no***********************
E||---0-------0-----|-----------------||
B||-3---3-3-----3-2-|-------5s7-2-2-2-||
G||-2---2-2-----2-2-|---4-2-4s6-2-2-2-||
D||-4---4-4-----4-4-|---4-2-----2-2-2-||
A||-----------------|-----------------||
E||-----------------|-----------------||


PLAY VERSE RIFF


Outro:                                                           hp
E||-----------------|-----------------|-----------0-----|-------***-------||
B||-------2---------|-----2-------2---|-3-----3-----3p2-|-----2-252-----2-||
G||---2h4-2---4p2-4h|-2---2-------2---|-2-------------2-|-----2-4-2---4-2-||
D||---2h4-2---4p2-4h|-2---2-------2---|-4---4-------4p2-|-----2-------4-2-||
A||-----------------|-----------------|-----------------|-----------------||
E||-----------------|-----------------|-----------------|-----------------||
****Portobello belle********************************************************
E||-----------------|-----------------|-----------------|-----------------||
B||-----------------|-----------------|-3---3-3-----3-2-|-2---2-2---2-2-2-||
G||-2r--------------|-----------------|-2---2-2-----2-2-|-2---2-2---2-2-2-||
D||-2r--------------|-----------------|-4---4-4-----4-2-|-2---2-2---2-2-2-||
A||-----------------|-----------------|-----------------|-----------------||
E||-----------------|-----------------|-----------------|-----------------||


E||-----------0-0---|------(7)--------|-----------0-----|-----------------||
B||-3-----3-----3---|-2---2-5p2-5p2---|-3-----3-----3p2-|-2---------------||
G||-2-------------2-|-2h4-2-4p2-4p2-4p|-2-----------2---|-2h4-2-4p2-4p2-4p||
D||-4---4-----------|-2h4-2---------4-|-----4-------4p2-|-2h4-2-4p2-4p2-4-||
A||-----------------|-----------------|-----------------|-----------------||
E||-----------------|-----------------|-----------------|-----------------||
***************************************************************************
E||-----------0-----|-----------------|-----------0-----|-----------------||
B||-3---3-3-----3-2-|-2---2-2---2-2-2-|-3---3-3-----3-2-|-2---2-2---2-2-2-||
G||-2---2-2-----2-2-|-2---2-2---2-2-2-|-2---2-2-----2-2-|-2---2-2---2-2-2-||
D||-4---4-4-----4-2-|-2---2-2---2-2-2-|-4---4-4-----4-2-|-2---2-2---2-2-2-||
A||-----------------|-----------------|-----------------|-----------------||
E||-----------------|-----------------|-----------------|-----------------||


E||-----------0-----|-----------------|-----------0-----|-----------------||
B||-----3-3---3-3-2-|-----------------|---3---------3p2-|-----2-5---5s2-3-||
G||-2-2-2-2-----2-2-|-------2-6p4-0-1-|-2---4p2-0---2---|-----2-4---4s2-2-||
D||-----4-4-----4-2-|-----24----------|-----------4-4p2-|-----2-------2p4-||
A||-----------------|-----------------|-----------------|-------0-4-------||
E||-----------------|-----------------|-----------------|-----------------||
****************************************************************************
E||-----------0-----|-----------------|-----------0-----|-----------------||
B||-3---3-3-----3-2-|-2---2-2---2-2-2-|-3---3-3-----3-2-|-2---2-2---2-2-2-||
G||-2---2-2-----2-2-|-2---2-2---2-2-2-|-2---2-2-----2-2-|-2---2-2---2-2-2-||
D||-4---4-4-----4-2-|-2---2-2---2-2-2-|-4---4-4-----4-2-|-2---2-2---2-2-2-||
A||-----------------|-----------------|-----------------|-----------------||
E||-----------------|-----------------|-----------------|-----------------||


Solo:
Danny playes following Riff over the Mark's solo:
    bE                bB                bE                bB
E||-----------0-----|-----------------|-----------0-----|-----------------||
B||-3---3-3-----3-2-|-2---2-2---2-2-2-|-3---3-3-----3-2-|-2---2-2---2-2-2-||
G||-2---2-2-----2-2-|-2---2-2---2-2-2-|-2---2-2-----2-2-|-2---2-2---2-2-2-||
D||-4---4-4-----4-2-|-2---2-2---2-2-2-|-4---4-4-----4-2-|-2---2-2---2-2-2-||
A||-----------------|-----------------|-----------------|-----------------||
E||-----------------|-----------------|-----------------|-----------------||


      bE                                  bB
E||-----------------------------------|----9----------9-----------9---10--||
A||-----------7---9-------10----------|--10---10--12------10--12----------||
B||-------------------7---------------|11---------------------------------||
G||-------------------7---------------|-----------------------------------||
D||---4-------------------------------|-----------------------------------||
A||---4-------------------------------|-----------------------------------||
E||-----------------------------------|-----------------------------------||
      1   &   2   &   3   &   4   &       1   &   2   &   3   &   4   &

      bE                                  bB
E||-------12h1412h14--14--14--14--14--|121412-9---10--12----------9---10--||
B||-----------------------------------|-h-p---------------12h-13----------||
      1   &   2   &   3   &   4   &       1   &   2   &   3   &   4   &
   
      bE                                  bB
E||----12h14---12h131214--12--9---10--|---12----------9---9h109-----------||
B||------------------h----------------|-------10h-12--------------12--10--||
      1   &   2   &   3   &   4   &       1   &   2   &   3   &   4   &

    bE                 bB (you can strum ones here)
E||------------------|----------------||
B||-12h14------------|----------------||End of Solo
    1  & ...

Outro:
(Danny continues with his riff)
    bE                bB                bE                bB
E||-----------0-----|-----------------|---------0-------|-----------------||
B||-3-3---3-----3p2-|-2-3s5-5---5p2-2-|h3-32--3-----3p2-|-2--22-5---5p2-2-||
G||-2---------------|-2-4s6-444-4p2-2-|---222-2---------|-2--22-4---4p2-2-||
D||-4---4---4---4p2-|-2-------------2-|h4---4-4---4-4p2-|-2-------------2-||
A||-----------------|-----------------|-----------------|-------------4---||
E||-----------------|-----------------|-----------------|-----------------||

    bE                bB                bE                bB                                        
E||-----------0-----|-----------0-----|-----------0-----|-----------------||
B||-3-333-3---3---3-|p2--22---0-2---2-|-3-3---3-----3p2-|-2--22-5---5p2-2h||
G||-2--22-2---2---2-|----22---2-4---2-|-2-----2-----2---|-2--2--4---4p2-2-||
D||-4--44-4---4---4-|p2--22-24----2-2-|-4---4-4-4---4p2-|-2--2----------2h||
A||-----------------|--------h--------|-----------------|-4---------------||
E||-----------------|-----------------|-----------------|-----------------||


Last part: Repeat and fade out or make what you want ;)
    bE                bB                bE                bB             
E||-----------------|-----------------|-----------0-----|-----------------||
B||h3-33--3---5-3p2-|-2b-25b-54-2---2-|h3-3---3-----3p2-|-----2-5---5p2-2-||
G||----2--2---2-2---|-2b-26b-65-2---2-|-------2---------|-------4---4p2-2-||
D||h4--44-4-4---4p2-|-2b-2----------2-|h4---4-4-4---4p2-|-------2---2---2-||
A||-----------------|-------------4---|-----------------|-----------------||
E||-----------------|-----------------|-----------------|-----------------||
                                                                    * stop here
                                                                      with A 
                                                                      (which is a bB) 

So this ist hot stuff :D
I really like it....
********************

comments and wishes please send to
knopf-im-ohr@web.de
comments
We did not receive enough feedback on this tab! Please rate:
print report bad tab
1 2 3 4 5
I want to post or [tab]
guest
You may want to rate the tab now too:
select rating
Please do not post tabs as comments. Select "correction" instead!