Oops, an error
Loading. Please wait.

Sultans Of Swing Tab

ver1
ver1
More versions @911Tabs.com
32,011 views 63 this week
5 commentsread comments
1 2 3 4 5
accurate
x 6
Autoscroll
+/-
esc
set tempo
stop
NEW! There's an official Ultimate Guitar app which is ideal
for learning songs when you're away from computer. Get the app
WARNING: You are trying to view
                                    content from Ultimate-Guitar.com
                                    in an unauthorized application,
                                    which is prohibited.

                                    Please use an official Ultimate
                                    Guitar Tabs application for iPhone,
                                    iPad or Android to access legitimate
                                    chords, guitar, bass, and drum tabs
                                    from Ultimate-Guitar.com database.

                                    Type "ultimate guitar tabs" in Apple
                                    App Store's or Android Market's
                                    search to find the application.
**************************************************************************************************
                  # Sultans of Swing Very Best of Dire Straits Album #
**************************************************************************************************

This file has the following tabs:

		Track 01 - Sultans of Swing       - Included
		Track 02 - Lady Writer            - Not Included - Anyone?
		Track 03 - Romeo & Juliet         - Included
		Track 04 - Tunnel of Love         - Included
		Track 05 - Private Investigations - Included
		Track 06 - Twisting by the pool   - Included
		Track 07 - Love Over Gold [Live]  - Not Included - ???
		Track 08 - So Far Away            - Included
		Track 09 - Money For Nothing      - Included
		Track 10 - Brothers In Arms       - Included
		Track 11 - Walk Of Life           - Included 
		Track 12 - Calling Elvis          - Solo Included - Full song anyone??
		Track 13 - Heavy Fuel             - Intro Included
		Track 14 - On Every Street        - Included
		Track 15 - Your Latest Trick      - er, it has very little guitar parts
		Track 16 - Local Hero/Wild Theme  - Included


If you have any of the tabs missing from this album, please email them to Straits - Straits_214@hotmail.com

This file was mostly mostly tabbed and compiled by Straits www.straits-tabs.tk
All tabs in this file are property of their repespective writers, and should not be duplicated or
sold, for any reason except for personal use.

**************************************************************************************************

************************************************************************************************** 

                   Song Title : Sultans Of Swing 
                        Tabber : Straits
                       www.straits-tabs.tk

     Dm x8   
   ----------------------------------------5-8-5---------------------
   ---T------------------------------6----6------6-5h6p5-------------
   -------5^(6)-5^(6)--5h7-------7-----7-7----------------7----------   
   ---A----------------------5h7---7---------------------------------
   ------------------------------------------------------------------
   ---B-------------------------------------------------------------- 

	Dm		
	YOU GET A SHIVER IN THE DARK

		     C		  Bb		   A		
	IT'S BEEN RAINING IN THE PARK BUT MEANTIME
   ------------------------------------------------------------------------------------
   ---T--------------------------------------------------------------------------------
   ---------------------------------------------------------5^(6)5^(6)5----------------
   ---A-----------------------------------------------------5^(6)5^(6)5----------------
   ------------------------------------------------------------------------------------
   ---B--------------------------------------------------------------------------------

	Dm	     		C	     Bb	              A		
	SOUTH OF THE RIVER YOU STOP AND YOU HOLD EVERYTHING
   -------------------------------------------------------------5-----5-----5----5-----
   ---T--------------------------------------------------------------------------6-----
   ----------------------------------------------------------/6----6-----6-------5-----
   ---A--------------------------------------------------------------------------7-----
   ------------------------------------------------------------------------------5-----
   ---B--------------------------------------------------------------------------x-----


	F(D-Struct)					  C	               	
	A BAND IS BLOWING DIXIE DOUBLE FOUR TIME
   ------------------------------------------------------------------------------------
   ---T-----------------------------------------------------5--5--6-6p5-3--------------
   ---------------------------------------------------------5--5--7-7p5-3--------------
   ---A-----------------------------------------------------5--5--7-7p5-3--------------
   ------------------------------------------------------------------------------------
   ---B--------------------------------------------------------------------------------

	Bb 			                         Dm	  Bb   C			
	YOU FEEL ALL RIGHT WHEN YOU HEAR THAT MUSIC RING
   ------------------------------------------------------------------------------------  
   ---T------------------------------------------------6-----3--3--3--3/5--------------    
   -------------------------------------------------7-----7--3--3--3--3/5-----------5-- 
   ---A--------------------------------------5h6h7-----------3--3--3--3/5-------5-7----   
   -------------------------------------------------------------------------5/7--------   
   ---B--------------------------------------------------------------------------------  
 
		    Dm	     	          C       Bb	         A		
		YOU STEP INSIDE BUT YOU DON'T SEE TOO MANY FACES
   ------------------------------------------------------------------------------------  
   ---T-----------------------------------------------------------6/8-10-10-8-6--------    
   ------------------------------------------------------------------------------------   
   ---A--------------------------------------------------------------------------------   
   ------------------------------------------------------------------------------------   
   ---B--------------------------------------------------------------------------------   
		Dm	     		       C         Bb	      A		
		   COMING IN OUT OF THE RAIN TO HEAR THE JAZZ GO DOWN
   --------------------------------------------------------10-8---------------3-------- 
   ---T---------------------------------------------------------10-8----------5--------
   ------------------------------------------------------------------9-7------5--------
   ---A------------------------------------------------------------------7-5--5--------
   ---------------------------------------------------------------------------3--------
   ---B-----------------------------------------------------------------------3--------

	   F(D-Struct)				 C			
		   COMPETITION TOO OTHER PLACES
   ------------------------------------------------------------------------------------
   ---T-----------------------------------------------------6--6--6-6p5-3--------------
   ---------------------------------------------------------5--5--7-7p5-3--------------
   ---A-----------------------------------------------------7--7--7-7p5-3--------------
   ------------------------------------------------------------------------------------
   ---B-------------------------------------------------------------------------------- 
  
		Bb					Dm         Bb   C	
		   BUT NOT THE HORNS CAN MAKE THAT SOUND
   -------------------------------------------------10--9-5----------------------------
   ---T---------------------------------------------10-10-6--3--3--3--3/5--------------
   ----------------------------------------------------------3--3--3--3/5--------------
   ---A------------------------------------------------------3--3--3--3/5--------------
   ------------------------------------------------------------------------------------
   ---B--------------------------------------------------------------------------------
   
				 Bb     C			   
		   WAY ON DOWNSOUTH        WAY ON DOWNSOUTH LONDON TOWN.
   ------------------------------------------------------------------------------------ 
   ---T----------------------3--3--3--3/5--------------------6p5--3--6--6-5--/10--8--8-
   --------------------------3--3--3--3/5--------------------7p5--3--7--7-5--/10--9--9-
   ---A----------------------3--3--3--3/5--------------------7p5--3--7--7-5--/10--10-10   
   ------------------------------------------------------------------------------------
   ---B--------------------------------------------------------------------------------

   ||:  Dm  C  |  Bb  |   C  |   C  :||
   --------------------------------------
   ---T---6p5--3--6--6p5--5--------------
   -------7p5--3--7--7p5--5----------5---
   ---A---7p5--3--7--7p5--5------5-7-----   
   --------------------------5/7---------
   ---B----------------------------------


			          Dm	      C	   Bb	                     A	
		YOU CHECK OUR GUITAR GEORGE           HE KNOWS ALL THE CHORDS
   ------------------------------------------------------------------/9-8-9----10------
   ---T--------------------------------------------------------------/8-8-8-10-10------
   ----------------------------------------------------------------------------10------
   ---A--------------------------------------------------------------------------------
   ------------------------------------------------------------------------------------
   ---B--------------------------------------------------------------------------------

		Dm	     		                        C       Bb	    A
		   MIND HE'S STRICTLY RHYTHM HE DOSEN'T WANT TO MAKE IT CRY OR SING
   ------------------------------------------------5-----9-----------------------------  
   ---T------------------------------------------5---5-8---8-10-8-(10)-8(10)-8-(10)----
   --------------------------------------------7---------------------------------------   
   ---A--------------------------------------------------------------------------------   
   ------------------------------------------------------------------------------------   
   ---B--------------------------------------------------------------------------------
   
	   F(D-Struct)					  C		
		   AND AN OLD GUITAR IS ALL HE CAN AFFORD
   ------------------------------------------------------------------------------------  
   ---T----------------------------------------------------------6/8-9--8-6-6-6-------- 
   --------------------------------------------------------------7/9-10-9-7-7-7--------
   ---A--------------------------------------------------------------------------------
   ------------------------------------------------------------------------------------   
   ---B--------------------------------------------------------------------------------  
 
		Bb			              Dm         Bb   C	
		   WHEN HE GETS UP UNDER THE LIGHTS TO PLAY HIS THING
   --------------------------------------------5/10-8-5--------------------------------  
   ---T--------------------------------------------------6--6--6--6/8------------------    
   ------------------------------------------------------7--7--7--7/9-------5---5--5h7- 
   ---A--------------------------------------------------8--8--8--8/10--5h7---7---7----   
   ------------------------------------------------------------------------------------ 
   ---B--------------------------------------------------------------------------------
  
		Dm	     		   C	 Bb	                    A	
		   AND HARRY DOESN'T MIND IF HE DOESN'T MAKE THE SCENE

		Dm	               C       Bb	      A		
		   HE'S GOT A DAYTIME JOB HE'S DOING ALRIGHT
   -------------------------------------------------------------/9-10-9-----------5----  
   ---T-----------------------------------------------------------------10-------------
   -------------------------------------------------------------------------7--6-------
   ---A--------------------------------------------------------------------------------   
   ------------------------------------------------------------------------------------   
   ---B--------------------------------------------------------------------------------   
         	F(D-Struct)			       C		
		   HE CAN PLAY HONKY TONK LIKE ANYTHING
   ------------------------------------------------------------------------------------  
   ---T--------------------------------------------------------5---5---6---6--5--3-----
   ------------------------------------------------------------5---5---7---7--5--3-----
   ---A--------------------------------------------------------------------------------   
   ------------------------------------------------------------------------------------   
   ---B--------------------------------------------------------------------------------   
		Bb			             Dm	      Bb   C		
		   SAVING IT UP FOR FRIDAY NIGHT
   ------------------------------------------------------------------------------------  
   ---T---------------------------------------------------6-5------3--3--3--3/5--------
   -------------------------------------------------5-7p5-----8-7--3--3--3--3/5--------
   ---A-----------------------------------------5/7----------------3--3--3--3/5--------
   ------------------------------------------------------------------------------------ 
   ---B--------------------------------------------------------------------------------

		                                   Bb C		
		WITH THE SULTANS,       WITH THE SULTANS OF SWING.		
   ----------1-------------------------------------------------------------------------
   ---T---3--3--3--3/5--------------------------6p5--3--6--6p5--5-----/10--8-----------
   -------3--3--3--3/5--------------------------7p5--3--7--7p5--5-----/10--9-----------
   ---A---3--3--3--3/5--------------------------7p5--3--7--7p5--5-----/10--10----------
   ------------------------------------------------------------------------------------
   ---B--------------------------------------------------------------------------------

   ||:  Dm  C  |  Bb  |   C  |   C  :||
   --------------------------------------
   ---T---6p5--3--6--6p5--5--------------
   -------7p5--3--7--7p5--5----------5---
   ---A---7p5--3--7--7p5--5------5-7-----   
   --------------------------5/7---------
   ---B----------------------------------

		            Dm	     		     C       Bb	                A		
		AND A CROWD OF YOUNG BOYS THEY'RE FOOLING AROUND IN THE CORNER
   -----------------------------------------------------------------12----------------
   ---T----------------------------------------------------13^(14)-------14--11/18----
   -----------------------------------------------------------------------------------
   ---A-------------------------------------------------------------------------------
   ----------------------------------------------------------------------------------- 
   ---B-------------------------------------------------------------------------------

		Dm	     		          C		   Bb             A	
  	        DRUNK AND DRESSED IN THEIR BEST BROWN BAGGIES AND THEIR PLATFORM SOLES
   ---------------------------------------------12p9-----------------------------------
   ---T-----------------------------------------------10-------------10--8^(10)-8^(10)-   
   -------------------------------------------------------9----------------------------
   ---A------------------------------------------------------12--11--------------------
   ------------------------------------------------------------------------------------
   ---B--------------------------------------------------------------------------------

	     F(D-Struct)					  C		
		   THEY DON'T GIVE A DAMN ABOUT ANY TRUMPET PLAYING BAND
   ------------------------------------------------------------------------------------  
   ---T----------------------------------------------------------6/8-9--8-6-6-6-------- 
   --------------------------------------------------------------7/9-10-9-7-7-7--------
   ---A--------------------------------------------------------------------------------
   ------------------------------------------------------------------------------------   
   ---B--------------------------------------------------------------------------------   

		Bb 			                Dm	   Bb   C	
		   IT AIN'T WHAT THEY CALL ROCK AND ROLL
   ------------------------------------------------------------------------------------  
   ---T------------------------------------------------6-----3--3--3--3/5--------------    
   -------------------------------------------------7-----7--3--3--3--3/5-------------- 
   ---A--------------------------------------5h6h7-----------3--3--3--3/5--------------   
   ------------------------------------------------------------------------------------   
   ---B--------------------------------------------------------------------------------    

				       Bb C			        
		AND THE SULTANS,       AND THE SULTANS PLAYED CREOLE	
   ----------1-------------------------------------------------------------------------
   ---T---3--3--3--3/5--------------------------6p5--3--6--6p5--5-----/10--8-----------
   -------3--3--3--3/5--------------------------7p5--3--7--7p5--5-----/10--9-----------
   ---A---3--3--3--3/5--------------------------7p5--3--7--7p5--5-----/10--10----------
   ------------------------------------------------------------------------------------
   ---B--------------------------------------------------------------------------------

   ||:  Dm  C  |  Bb  |   C  |   C  :||
   --------------------------------------
   ---T---6p5--3--6--6p5--5--------------
   -------7p5--3--7--7p5--5----------5---
   ---A---7p5--3--7--7p5--5------5-7-----   
   --------------------------5/7---------
   ---B----------------------------------

Solo 1:-

||:   Dm   |  C  Bb  |   A   |   A   :||:   C   |   C   |   G   |   G   |   F   |   F   |
  |   Dm   |  Dm Bb  |   C   |   C  Bb  |   C   |   C   :||:  Dm  C  |   Bb   |   C   |   C   :||


3:33                                               3:40  
  --------------------------------------------9-12-10--------------------------------------------
  ---T--10--10-10-10------------------------10-------10------11-13-11h13r11-10h11r10-----11-9-10-
  ------------------10h12r10-9h10r9--------9-----------10----------------------------(14)--------  
  ---A-----------------------------------11--------------12--------------------------------------
  -------------------------------------12--------------------------------------------------------
  ---B-------------------------------12----------------------------------------------------------
                                                                                         
   3:41                                                       3:50                        
  ------------13----------13-12----------------------------------------13-10-----10--------------
  ---T----13----13-------------13--------13-13-13---15-15-13--15-15--10-----10-13--13-10---------
  ------14--14----14-------------12-14-12-------------------15--------------------------12-10----
  ---A--------------15-15------------------------------------------------------------------------
  -----------------------------------------------------------------------------------------------
  ---B-------------------------------------------------------------------------------------------
                                                                                      
    3:53                                                  
  -----------------------------------------------------------------------------------------------
  ---T-------3-6p3-----5-6-8-6-5-6h8--------3-6p3----------------6^(7)p5-------------------------
  ---------3----------5-------------------3-----------5-7-5-7^-----------7p5-7-------------------
  ---A---3-----------5------------------3-----------5--------------------------------------------
  -----------------------------------------------------------------------------------------------
  ---B-------------------------------------------------------------------------------------------
                     
   ----------------------------------------------------------------------------------------------
   ---T--6p5--3--6--6p5--5-----/10--8-----6p5--3--6--6p5--5-------------5------------------------
   ------7p5--3--7--7p5--5-----/10--9-----7p5--3--7--7p5--5-------5-7----------------------------
   ---A--7p5--3--7--7p5--5-----/10--10----7p5--3--7--7p5--5---5/7--------------------------------
   ----------------------------------------------------------------------------------------------
   ---B------------------------------------------------------------------------------------------

             Dm	     		    C		   Bb	               A	
		AND THEN THE MAN HE STEPS RIGHT UP TO THE MICROPHONE
   -----------------------------------------------------------------7/9--9--9/12--12--12\10------  
   ---T-----------------------------------------------------10-----------------------------------
   ------------------------------------------------------9-------9-------------------------------   
   ---A------------------------------------------------------------------------------------------   
   ----------------------------------------------------------------------------------------------   
   ---B------------------------------------------------------------------------------------------   

            Dm	     	           C	       Bb	     A	
		AND SAYS AT LAST JUST AS THE TIME BELL RINGS
   --------------------------------------------------------------9--  
   ---T----------------------------------------------------------5--
   --------------------------------------------------------------0--
   ---A-------------------------------------------------------------
   -----------------------------------------------------------------
   ---B-------------------------------------------------------------

	    F(D-Struct)				    C			
	        "GOODNIGHT NOW IT'S TIME TO GO HOME"
   ---------------------------------------------------------------6-
   ---T----------------------------------------------8--(8)\6----6--
   ---------------------------------------------7/9-----(9)\7---7---
   ---A-------------------------------------------------------8-----
   -----------------------------------------------------------------
   ---B-------------------------------------------------------------



		Bb 		      		            Dm	      Bb   C	
		   AND HE MAKES IT FAST WITH ONE MORE THING
   ----------------------------------------------------------------------------------------  
   ---T------------------------------------------------6----6----3--3--3--3/5--------------    
   -------------------------------------------------7-----7---7--3--3--3--3/5-------------- 
   ---A--------------------------------------5h6h7---------------3--3--3--3/5--------------   
   ----------------------------------------------------------------------------------------   
   ---B------------------------------------------------------------------------------------   

				                Bb   C 	
		"WE ARE THE SULTANS,          WE ARE THE SULTANS OF SWING"
   ----------1-------------------------------------------------------------------------
   ---T---3--3--3--3/5--------------------------6p5--3--6--6p5--5-----/10--8-----------
   -------3--3--3--3/5--------------------------7p5--3--7--7p5--5-----/10--9-----------
   ---A---3--3--3--3/5--------------------------7p5--3--7--7p5--5-----/10--10----------
   ------------------------------------------------------------------------------------
   ---B--------------------------------------------------------------------------------

   ||:  Dm  C  |  Bb  |   C  |   C  :||
   --------------------------------------
   ---T---6p5--3--6--6p5--5--------------
   -------7p5--3--7--7p5--5----------5---
   ---A---7p5--3--7--7p5--5------5-7-----   
   --------------------------5/7---------
   ---B----------------------------------

		||:   Dm  |   Bb  |   C   |   C   :|| x8
5:02                                                       
   ---------------------------------------------------------------------------------------------
   ---T-10--------------------10---------------------------------10-8h10p8----8-----------------
   --------12-10-12-10-----------10h12p10-7h10p7-5h7p5---------------------10---10-7------------
   ---A----------------12------------------------------5h7p5-------------------------------------
   -------------------------------------------------------5h7p5--------------------------------
   ---B-----------------------------------------------------------------------------------------
                                                                                        
    5:09                                      5:12                                        
   ---------5h8-----5h8-----5h8-----------------------13-10-------------------------------------
   ---T-5h8-----5h8-----5h8-----5------------------10------13-10--------------10----------------
   -------------------------------------------------------------12-10------------12-------------
   ---A--------------------------------------------------------------12--10-12------------------
   ---------------------------------------------------------------------------------------------
   ---B-----------------------------------------------------------------------------------------
                                                                                      
    5:15                             5:18                                                 
   --------------------------12-----10---13p10---10-----13p10---10-----15p12---12------15p12----
   ---T------10-------11---13--13-11-----------10--(x4)-------11---(x4)------13---(x7)-------13-
   ----10-12----10-12---------------------------------------------------------------------------
   ---A-----------------------------------------------------------------------------------------
   ---------------------------------------------------------------------------------------------
   ---B-----------------------------------------------------------------------------------------
                                                                                           
                                                                                        
   -----13p10---10-----13p10---10-----15p12---12------15p12-------------------------------------
   ---T-------10--(x4)-------11---(x4)------13---(x7)-------13----------------------------------
   ---------------------------------------------------------------------------------------------
   ---A-----------------------------------------------------------------------------------------
   ---------------------------------------------------------------------------------------------
   ---B-----------------------------------------------------------------------------------------
                                                                                        
     5:32                                                                                
   ------17--17-15----15-------------17--15h17p15-----------------------------------------------
   ---T------------18----15------18----------------15h18p15-13h15p13-10h13p10-------------------
   ---------------------------------------------------------------------------9h12p9------------
   ---A------------------------------------------------------------------------------10h12p10---
   -------------------------------------------------------------------------------------------12
   ---B-----------------------------------------------------------------------------------------
                                Fades out here.....
   -----------------------------------------------------------
   ---T--6p5--3--6--6p5--5-----/10--8-----6p5--3--6--6p5--5---
   ------7p5--3--7--7p5--5-----/10--9-----7p5--3--7--7p5--5---
   ---A--7p5--3--7--7p5--5-----/10--10----7p5--3--7--7p5--5---
   -----------------------------------------------------------
   ---B-------------------------------------------------------


Notes :-
p = pull off  
h = hammer on
^( ) = bend up until note sound like that shown in brackets
/ = slide up
\ = slide down

All barre Chords:-

  Dm  C    C   Bb  A    A   F(D-struct)   G   F
--5---3----8---1---0----5--------5--------3---1--
--6---5----8---3---2----5--------6--------3---1--
--7---5-or-9---3---2-or-6--------5--------4---2--
--7---5----10--3---2----7--------7--------5---3--
--5---3----10--1---0----7--------5--------5---3--
--5---3----8---1---0----5--------x--------3---1--

There we go, The chords on here now are the chords the lead guitarist(Mark Knopfler) plays,
the chords the 2nd guitarist plays are Dm | C | Bb | A x2 then C | G | F | Dm then the sultans of
swing part is the same 4 both guitarists.


**************************************************************************************************

**************************************************************************************************

                            Song : Romeo & Juliet
                          Tabber : Straits
                         www.straits-tabs.tk
                                         

Guitar used: Hand crafted Steel Guitar
             (Yes thats the amazin £2million specifically designed
             around Mark Knopfler, so dont worry if yours doesnt 
             sound the same)

Ok, this is the 2nd tab of this song ive dun, cos the other one wos just chords
and wos probably a bit confusing when it comes to the timing + parts of it were
wrong, for which i appologise, but this one is pretty much as close as i can
get it.

Intro:

    F(D-struct)                                  Bb (strum a few times)
E|---5------------------5-------------5--3--0-----1---------------1----
B|---6----------6-------6----------6--------------3----------3----3----
G|---5-------5----------5-------5-----------------3-------3-------3----
D|---7----7---------------------------------------3----3---------------
A|---------------------------------------------------------------------
E|---------------------------------------------------------------------


            F(D-struct)             F(barred,1st fret)      Bb(strum...)
E|--0h1--3----5----------------5------------------1---5p3--0--1-----------1--
B|------------6----------6-----6---------------1--------------3--------3--3--
G|------------5-------5--------5------------2-----------------3-----3-----3--
D|------------7----7---------------------3--------------------3--3-----------
A|------------------------------------3--------------------------------------
E|---------------------------------------------------------------------------


(the rest of the band kicks in here and starts to obscure things)

  C(Open)   F(D-struct)                                  Bb(strum...)
E|--0---------5------------------5-------------5--3--0-----1-----------1--
B|--1---------6---------6--------6----------6--------------3--------3--3--
G|--0---------5------5-----------5-------5-----------------3-----3-----3--
D|--2---------7---7----------------------------------------3--3-----------
A|--3---------------------------------------------------------------------
E|--x---------------------------------------------------------------------



            F(D-struct)                              Bb(strum/pick...)
E|--5--3------5-------------5------------------0--5p3---0---1-----------1--
B|------------6---------5---6---------------1---------------3--------3--3--
G|------------5------6------5------------0------------------3-----3-----3--
D|------------7---7-------------------2---------------------3--3-----------
A|---------------------------------3---------------------------------------
E|-------------------------------------------------------------------------

  C(Open)   F(D-struct)
E|--0---------5---
B|--1---------6---
G|--0---------5---
D|--2---------7---
A|--3-------------
E|--x-------------


Verses:

    F                       Dm                               C  F
E|--5-----------------------1--------------------------------3--5------------
B|--6-----------------------3--------------------------------5--6------------
G|--5-----------------------2--------------------------------5--5------------
D|--7-----------------------0--------------------------------5--7------------
A|--x-----------------------x--------------------------------3--x------------
E|--x-----------------------x--------------------------------x--x------------
.....A lovestruck Romeo.........sings a streetsuss serenade..................


                         C  Dm               Bb              Bb C   
E|-----------------------3--1----------------1----------------1/3--3---------
B|-----------------------5--3----------------3----------------3/5--5---------
G|-----------------------5--2----------------3-----(light)----3/5--5---------
D|-----------------------5--0----------------3---(strumming)--3/5--5---------
A|-----------------------3--x----------------1----------------1/3--3---------
E|-----------------------x--x----------------x----------------x/x--x---------
...Laying everybody low.......with the love song that he made................

  
   C                     Bb C                     F          
E|--3---------------------1/3---------------------1--1------------------1----
B|--5---------------------3/5---------------------1--1---------------1-------
G|--5-------(light)-------3/5-------(light)-------2--2------------2----------
D|--5-----(strumming)-----3/5-----(strumming)-----3--3---------3-------------
A|--3---------------------1/3---------------------3--3------3----------------
E|--x---------------------x/x---------------------1--1-----------------------
......Finds a streetlight.....Steps out of the shade, says something like.....

    Bb                     C              
E|--1----------------------0-------------------------------------------------
B|--3----------------------1-------------------------------------------------
G|--3-----(light)----------0-------------------------------------------------
D|--3---(strumming)--------2-------------------------------------------------
A|--1----------------------3-------------------------------------------------
E|--x----------------------x-------------------------------------------------
....you and me, babe, how about it?..........................................

*After the first verse play one of the following riffs*
E|--0--0----------- Followed by strumming F(1st fret)
B|--------3--1----- 
G|--------------2-- 
D|-----------------  
A|-----------------    
E|-----------------

or

    Dm  Dm  C   Bb  C   F                       
E|--1---1---3---1---0---1------------------
B|--3---3---5---3---1---1------------------
G|--2---2---5---3---0---2----(light)-------
D|--0---0---5---3---2---3--(strumming)-----
A|--x---x---3---1---3---3------------------
E|--x---x---x---x---x---1------------------
  (Strum each chord once only, except for Dm
     which you strum twice as shown above)

* After the second verse he just goes straight into the Prechorus*
* After the third verse he plays this riff*

    C   Bb  C   F                       
E|--3---1---0---1----
B|--5---3---1---1----
G|--5---3---0---2----
D|--5---3---2---3----
A|--3---1---3---3----
E|--x---x---x---1----
  (Strum each chord once only)


Prechorus:

    F                             C Dm                                  C  F
E|--1-----------------------------0--1----------------------------------0--1---
B|--1-----------------------------1--3----------------------------------1--1---
G|--2-----------------------------0--2----------------------------------0--2---
D|--3-----------------------------2--0----------------------------------2--3---
A|--3-----------------------------3--x----------------------------------3--3---
E|--1-----------------------------x--x----------------------------------x--1---
...Juliet says, "Hey, it's Romeo!.....you nearly gave me a 'eart attack!"....

    F                          C Dm                         Bb        Bb C  
E|--1--------------------------0--1-------------------------1----------1/3--3--
B|--1--------------------------1--3-------------------------3----------3/5--5--
G|--2--------------------------0--2-------(light)-----------3----------3/5--5--
D|--3--------------------------2--0-----(strumming)---------3----------3/5--5--
A|--3--------------------------3--x-------------------------1----------1/3--3--
E|--1--------------------------x--x-------------------------x----------x/x--x--
.....He's underneath the window....she's singing "Hey la my boyfriend's back

   C                     Bb C                     F          
E|--3---------------------1/3---------------------1--1------------------1----
B|--5---------------------3/5---------------------1--1---------------1-------
G|--5-------(light)-------3/5-------(light)-------2--2------------2----------
D|--5-----(strumming)-----3/5-----(strumming)-----3--3---------3-------------
A|--3---------------------1/3---------------------3--3------3----------------
E|--x---------------------x/x---------------------1--1-----------------------
....Shouldn't come around here, singing up at people like that.............

    Bb                             C              
E|--1------------------------------0-------------------------------------------
B|--3------------------------------1-------------------------------------------
G|--3---------(light)--------------0-------------------------------------------
D|--3-------(strumming)------------2-------------------------------------------
A|--1------------------------------3-------------------------------------------
E|--x------------------------------x-------------------------------------------
...Anyway, what you gonna do about it?".........................................



Chorus:

    F             F C           Dm          Dm  C   Bb
E|--1-------------1-0-----------1-----------1---3---1--------------------------
B|--1-------------1-1-----------3-----------3---5---3--------------------------
G|--2---(light)---2-0--(light)--2--(light)--2---5---3------(light)-------------
D|--3-(strumming)-3-2(strumming)0(strumming)0---5---3----(strumming)-----------
A|--3-------------3-3-----------x-----------x---3---1--------------------------
E|--1-------------1-x-----------x-----------x---x---x--------------------------
Juliet............the dice was loaded.....from the start.......................

    F             F C           Dm          Dm  C   Bb
E|--1-------------1-0-----------1-----------1---3---1--------------------------
B|--1-------------1-1-----------3-----------3---5---3--------------------------
G|--2---(light)---2-0--(light)--2--(light)--2---5---3--------------------------
D|--3-(strumming)-3-2(strumming)0(strumming)0---5---3--------------------------
A|--3-------------3-3-----------x-----------x---3---1--------------------------
E|--1-------------1-x-----------x-----------x---x---x--------------------------
And I bet.................and you exploded into my heart......

     F   Bb     C   Bb     Dm                Bb C                       
E|---1---1------3---1------1------------------1/3--3---------------------------
B|---1---3------5---3------3------------------3/5--5---------------------------
G|---2---3------5---3------2------------------3/5--5---------------------------
D|---3---3------5---3------0------------------3/5--5---------------------------
A|---3---1------3---1------x------------------1/3--3---------------------------
E|---1---x------x---x------x------------------x/x--x---------------------------
And I forget, I forget.......the movie song....................................

    F             F C           Dm            Dm  C   C         F
E|--1-------------1-0-----------1-------------1---3---0---------1--------------
B|--1-------------1-1-----------3-------------3---5---1---------1--------------
G|--2---(light)---2-0--(light)--2---(light)---2---5---0---------2--------------
D|--3-(strumming)-3-2(strumming)0-(strumming)-0---5---2---------3--------------
A|--3-------------3-3-----------x-------------x---3---3---------3--------------
E|--1-------------1-x-----------x-------------x---x---x---------x--------------
When you gonna realize it was just that the time was wrong.....Juliet..........


Bridge:

  F(barred,1st fret)      Bb(strum...)
E|-----------------1---5p3--0--1-----------1-----0h1--3----5--------------5--
B|--------------1--------------3--------3--3---------------6---------6----6--
G|-----------2-----------------3-----3-----3---------------5------5-------5--
D|--------3--------------------3--3------------------------7---7-------------
A|-----3---------------------------------------------------------------------
E|---------------------------------------------------------------------------


                       Bb(strum...)      C(Open)  F(Dstruct)
E|-----------5--3--0-----1-----------1-------0---------5------
B|--------6--------------3--------3--3-------1---------6------
G|-----5-----------------3-----3-----3-------0---------5------
D|-----------------------3--3----------------2---------7------
A|-------------------------------------------3----------------
E|-------------------------------------------x----------------

*After the third bridge play this Riff*

     F(D-struct)                                  Bb (strum a few times)
E|---5------------------5-------------5--3--0-----1---------------1----
B|---6----------6-------6----------6--------------3----------3----3----
G|---5-------5----------5-------5-----------------3-------3-------3----
D|---7----7---------------------------------------3----3---------------
A|---------------------------------------------------------------------
E|---------------------------------------------------------------------

            F(D-struct)                                   F
E|--0h1--3----5----------------5-----5--3--5-----3--1-----1-----------
B|------------6----------6-----6-----------------------3--1-----------
G|------------5-------5--------5--------------------------2-----------
D|------------7----7--------------------------------------3-----------
A|--------------------------------------------------------3-----------
E|--------------------------------------------------------1-----------


Order of play:

Intro x1
             _
Verse x1      | 
Prechorus x1  |_____ x 3
Chorus x1     |
Bridge x1    _|

Verse x1 (then its just the you and me babe part (Bb and C chords)
          repeated until the end while the electric guitar + hawainan guitar do
          solos)

Tip: Listen out for when the hawaian guitar slides notes, because there is a 
     very distinct one which is at the same time that you slide from Bb to C 


**************************************************************************************************

**************************************************************************************************

                     Song title : Tunnel of Love
                         Tabber : tzitron@loria.fr (Vincent Tzitron)


 Dm  C  Dm                Bb                 Dm  C  Dm  Bb
--------10----10--------------------------------------------
-----------------13-10-----------------------10-------------
-----------------------12-10---10-9-10-12-10----------------
------------------------------------------------------------
------------------------------------------------------------
------------------------------------------------------------


                     Dm        F                        C
Getting crazy on the waltzers, but it's the life that I choose

G                                                       Dm
Sing about the sixblade sing about the switchback and a torture tatoo

              Dm                             F
And I've been riding on a ghost train 
------------------------------------------------------------
---------------------------------------3/5-5----------------
---------------------------------------2/5-5^6--------------
------------------------------------------------------------
------------------------------------------------------------
------------------------------------------------------------

                    C
where the cars they scream and slam
------------------------------------------------------------
--------------------------------------5-5---5---------------
--------------------------------------5-5---5^6-------------
------------------------------------------------------------
------------------------------------------------------------
------------------------------------------------------------

G                                              Dm
And I don't know where I'll be tonight but I'd always tell you where I am

     Dm                             F
In a screaming ring of faces 
------------------------------------------------------------
------------------------------3/5-5-------------------------
------------------------------2/5-5^6-----------------------
------------------------------------------------------------
------------------------------------------------------------
------------------------------------------------------------

                          C
I see her standing in the light
------------------------------------------------------------
---------------------------------9(10)-9-7----7-------------
-------------------------------------------10---------------
------------------------------------------------------------
------------------------------------------------------------
------------------------------------------------------------

G                                                     Dm
She had a ticket for the races just like me she was a victim of the night

         Dm                             F
I put my hand upon the lever 
------------------------------------------------------------
-------------------------------5-7-5-7-5--------------------
-------------------------------6----------------------------
-------------------------------6----------------------------
------------------------------------------------------------
------------------------------------------------------------

                            C
said let it rock and let it roll
------------------------------------------------------------
-----------------------------------9/7---9/7---9------------
----------------------------------10/8--10/8--10------------
------------------------------------------------------------
------------------------------------------------------------
------------------------------------------------------------

G                                                      Dm
I had the one arm bandit fever was an arrow through my heart and my soul


                           Bb                      C
And the big wheels keep on turning
------------------------------------------------------------
-----------------------------------------6---6---6^8-8------
-------------------------------------5-7---7----------------
------------------------------------------------------------
------------------------------------------------------------
------------------------------------------------------------

     F            Bb
neon burning , up above

         F
And I am high on the world
------------------------------------------------------------
----------------------------11(13)-11-10-11-10--------------
-----------------------------------------------12-10--------
------------------------------------------------------------
------------------------------------------------------------
------------------------------------------------------------

        C      Dm               Bb
come on take a low ride with me girl.
------------------------------------------------------------
------------------------------------------------------------
-------------------------------------------10---------------
----------------------------------------12----12-10-12------
------------------------------------------------------------
------------------------------------------------------------

                   Dm  C  Dm  Bb
On the tunnel of love.


              Dm     F                              C
It's just the danger when you're riding at your own risk

G                                                   Dm
She said you are the perfect stranger she said baby let's keep it like this

            Dm              F
It's just a cakewalk 
------------------------------------------------------------
----------------------5-----5-------------------------------
----------------------6^5---5-------------------------------
------------------------------------------------------------
------------------------------------------------------------
------------------------------------------------------------
                                C
twisting baby step right up and say
------------------------------------------------------------
------------------------------------------------------------
------------------------------------10(12)-10-9-10-9-10(12)-
------------------------------------------------------------
------------------------------------------------------------
------------------------------------------------------------


G                                              Dm
Hey mister give me two give me two because any two can play


                           Bb           C
And the big wheels keep on turning
---------------------------6--------------------------------
---------------------------6--------------------------------
---------------------------7--------------------------------
---------------------------8--------------------------------
------------------------------------------------------------
------------------------------------------------------------

     F            Bb
neon burning , up above
-------------------------10-11-10---------------------------
----------------------------------13-11---------------------
------------------------------------------------------------
------------------------------------------------------------
------------------------------------------------------------
------------------------------------------------------------

         F
And I am high on the world
------------------------------------------------------------
----------------------------13-11-10-11-10------------------
--------------------------------------------12-10-----------
------------------------------------------------------------
------------------------------------------------------------
------------------------------------------------------------

        C      Dm               Bb
come on take a low ride with me girl.
------------------------------------------------------------
------------------------------------------------------------
-------------------------------------------10---------------
----------------------------------------12----12-10-12------
------------------------------------------------------------
------------------------------------------------------------

                   Dm  C  Dm  Bb
On the tunnel of love.


               Gm                       Bb
Well it's been money for muscle another whirligig

Gm                               Bb
Money for muscle         another girl I dig
------------------------------------------------------------
------------------------------------------------------------
------------------------------------------------------------
-------------------8-10-8-----------------------------------
----------------10------------------------------------------
------------------------------------------------------------

Gm                                     Bb
Another hustle            just to make it big
------------------------------------------------------------
------------------------------------------------------------
------------------------------------------------------------
-------------------8-10-8-----------------------------------
----------------10------------------------------------------
------------------------------------------------------------

    C              C
and rock away      rock away
------------------------------------------------------------
------------------------------------------------------------
--------------10-9-----------10-9---------------------------
------------------------------------------------------------
------------------------------------------------------------
------------------------------------------------------------


    F                              C Dm
And girl, it looks so pretty to me , just like it always did

Bb C                          F Bb                      C
   Like the Spanish city to me, when we were kids.


SOLO : [ F  C Dm  Bb C  F Bb  C ] (2x)  Dm  C  Dm  Bb
----     

               Dm            F                       C
She took off a silver locket she said remenber me by this
-----------------------------------------------------------------
-----------------------------------------------------------------
----------------------------------------------------------9^7^9--
-----------------------------------------------------------------
-----------------------------------------------------------------
-----------------------------------------------------------------

G
She put her hand in my pocket
-------------------------------3----------------------------
-------------------------------3---3-3-5-5-3----------------
------------------------------------------------------------
------------------------------------------------------------
------------------------------------------------------------
------------------------------------------------------------

                       Dm
I got a keepsake and a kiss
------------------------------------------------------------
-----------------------------------6------------------------
------------------------------------------------------------
-----------------------------7-5---7------------------------
---------------------------------8--------------------------
------------------------------------------------------------

                   Dm                           F
And in the roar of dust and diesel
------------------------------------------------5-----------
------------------------------------5^6---6-8-8-6-----------
------------------------------------------------------------
------------------------------------------------------------
------------------------------------------------------------
------------------------------------------------------------

                        C
I stood and watched her walk away
------------------------------------------------------------
----------------------------------6-5-----------------------
--------------------------------------5---------------------
----------------------------------------8-7-5-8-7-5-------5-
----------------------------------------------------8-7-8---
------------------------------------------------------------

G                                                                   Dm
I could have caught up with her easy enough but something must have made me stay

                           Bb      C      F            Bb
And the big wheels keep on turning , neon burning , up above

         F
And I am high on the world
------------------------------------------------------------
----------------------------11(13)-11-10--------------------
-----------------------------------------12-10--------------
------------------------------------------------------------
------------------------------------------------------------
------------------------------------------------------------

        C      Dm               Bb
come on take a low ride with me girl.
------------------------------------------------------------
------------------------------------------------------------
-------------------------------------------10---------------
----------------------------------------12----12-10-12------
------------------------------------------------------------
------------------------------------------------------------

                   Dm  C  Dm  Bb
On the tunnel of love.

                   Dm  C  Dm  Bb
On the tunnel of love.


            Gm                                        Bb
And now I'm searching through these carousels and the carnival arcades

Gm                        Bb
Searching everywhere from steeplechase and palisades

       Gm                     Bb
In any shooting gallery where promises are made

   C                                                           C
To rock away rock away from cullercoats and whitley bay out to rockaway


(Bridge : arpeggiated chords)
F                                 C Dm                     Bb C
And girl it looks so pretty to me  ,   like it always did

                            F Bb                     C F
Like the Spanish city to me  ,   when we were kids.

                                  C Dm                      Bb C
And girl it looks so pretty to me  ,   like it always did

                            F Bb                    C
Like the Spanish city to me  ,   when we were kids.



FINAL SOLO :
----------

* Second guitar : plays chords from the bridge,
                  and then repeat [ F  C Dm  C  Bb ] till the end.

* Lead guitar :

---------------------------------------------------------------------
-10^11^10----------10-11-10--------------10-13-10-11--------------10-
------------12--------------12-10-12------------------------10-12----
------------14---------------------------------------12--------------
---------------------------------------------------------------------
---------------------------------------------------------------------

---------------------------------------------------------------------
-10^11^10---10(11)10---10-11-10---------------------10-11-10---------
----------------------------------10-12---10-12--------------12-10-12
---------------------------------------------------------------------
---------------------------------------------------------------------
---------------------------------------------------------------------

---------------------------------------------------------------------
-10-13-10-11-----------10----------10--------------------13(15)13----
-------------10-10--------12-10-12------12^10---12^10----------------
----------------12---------------------------------------------------
---------------------------------------------------------------------
---------------------------------------------------------------------

------------------------10-------------------------------------------
-10-11---------------------13---------------------------12--------12-
-------10-12-12^10^12-------------------------10-12(14)----12(14)----
------------------------------10-10-12-12----------------------------
---------------------------------------------------------------------
---------------------------------------------------------------------

-------------------------------------------------------------
-13----10-13----10-13-10--------------12---------------------
----12-------12----------12-10-12(14)------------------------
-------------------------------------------------------------
-------------------------------------------------------------
-------------------------------------------------------------

-------------------------------------------------------------
-------------------------------------------------------------
----9-10-12-10^12^10-9-9^10^9----10----10--------------------
-12---------------------------12----12----12-10--------------
-------------------------------------------------------------
-------------------------------------------------------------

--------------------------------------------10-10---10-------
--------------------------------------11-13------------13-13-
----------------9-10-9-10------------------------------------
-12-10-12-10-12-----------10-10-10-12------------------------
-------------------------------------------------------------
-------------------------------------------------------------

---------------------------------------10-13-12-10----10----10----------
-11-10---10-10----------(15)13(15)-----------------13----13----13-------
---------------12-10-10-------------------------------------------12-12-
------------------------------------------------------------------------
------------------------------------------------------------------------
------------------------------------------------------------------------

------------------10-13----10-13----10-13-10-------10-------10-----------
---------------13-------13-------13----------13-10----10-13--------10^13-
-(14)12-10---------------------------------------------------------------
-------------------------------------------------------------------------
-------------------------------------------------------------------------
-------------------------------------------------------------------------

----10-------10--------13-12-10-----------17----------------------
-10----10-13--------10----------10-----------20-20----------------
---------------------------------------------------17^19^17----17-
---------------------------------------19-------------------19----
------------------------------------------------------------------
------------------------------------------------------------------

--------------------13-13-13----10--------------------------------
----10------10-13------------11-------13--------------------------
-10--------------------------------10-----------------------------
-------10---------------------------------------------------------
------------------------------------------------------------------
------------------------------------------------------------------

-------------17-18-17-----------------------------------------------
----18----18----------20-18^20^18-17-----------------18----18-20-20-
-17----17----------------------------19-----------19----19----------
----------------------------------------19-19-----------------------
--------------------------------------------------------------------
--------------------------------------------------------------------

-------------------17--------------------------------------
-17-18-20-17-18-20-------18------18-18------18-18----------
----------------------19------19---------19---------19-----
-----------------------------------------------------------
-----------------------------------------------------------
-----------------------------------------------------------

-|-------------|-------------------------------------|-------------
-|-------------|-11-10----11---11-10-----------------|-------------
-|--keyboards--|-------12------------12-10-12-12-10--|--keyboards--
-|-------------|-------------------------------------|-------------
-|-------------|-------------------------------------|-------------
-|-------------|-------------------------------------|-------------


**************************************************************************************************

**************************************************************************************************

                      Song Title : Private Investigations
                          Tabbed : Gerco de Haan
                          gt.dehaan@lycosmail.com

Chords used:
Em    022000
Em/D  xx0000
Bm    x24432
A     x02220
G     320003
F/A   x03211
B7    x21202
Edim  xx2323
Am/6  x04210
Am6/C x34210
C     x32010
Em6   022020
Em7   022030
Em9   022002


Em  Em/D  Bm               A  G             F/A B7               G  Edim         Am6
|------------|---------------|-----------------|-------------------|--------------------|
|---8--------|-----------8---|---8/12---8-8/10-|-10p8h10---10/12-8-|-------8-7-5/10-----|
|-----9-9/11-|-11p9h11-----9-|-7---------------|-------------------|-----6----------9-9-|
|-9----------|---------------|-----------------|-------------------|---8----------------|
|------------|---------------|-----------------|-------------------|-7------------------|
|------------|---------------|-----------------|-------------------|--------------------|

 B7      Em  Em/D   Bm             A        G               F/A     B7
|----------||---7-----|---7----|--------|-------|-------------|-----------------|
|-/7-7-8---||-8---8-7-|-7------|-7-10---|---8---|---8---7/6---|-6-5-4-------5---|
|--------9-||---------|--------|------9-|-9---7-|-7---7-----5-|---------4-4---4-|
|----------||---------|--------|--------|-------|-------------|-----------------|
|----------||---------|--------|--------|-------|-------------|-----------------|
|----------||---------|--------|--------|-------|-------------|-----------------|

 G         Edim               Am6                    B7                   Em
|------------|---------------|----------------------|-----------------------|-------------||
|------------|-------------8-|-------------------10-|-----------------------|-------------||
|-{12-11-9---|-----6---------|---------9------------|-----------------------|-------------||
|-}12--------|---8---8---8---|-10---10---10---10----|-{9-10-9-10-9-7--------|-----5-------||
|-.10--------|-7-------7-----|----9---------9-------|-}9-------------10-9-7-|-5h7---5h7---||
|------------|---------------|----------------------|-.7--------------------|-------------||

 Em/D     Bm                           A     G             F/A   B7
||---7---|---7-------7---7-|---7-------5---|-3-----3---3-----|-----------------------5-|
||-8-----|-7---7---7---7---|-7---7-7-8---5-|---3-3---3---7-6-|-5-4---------------4-----|
||-------|-----------------|---------------|-----------------|---------4h5p4---4-------|
||-------|-----------------|---------------|-----------------|-------4-------4-----4---|
||-------|-----------------|---------------|-----------------|-------------------------|
||-------|-----------------|---------------|-----------------|-------------------------|

  G                 Edim            Am6/C          B7           Em       D         G
|-------0---3-----|-----------0-3-|-------------5-|---------------||------------------|
|-----0---0-----0-|-------2-------|-------5---5---|---------------||---------------12-|
|---0-------------|-----3---3-----|-----5---5-----|-4-5-4-5-4-----||---9-12-9---12----|
|-----------------|---2-----------|---5-----------|-----------5---||-9--------9-------|
|-----------------|---------------|-3-------------|-------------7-||------------------|
|-3---------------|-3-------------|---------------|---------------||------------------|

                D                     C       Em           D          G                  D
                                        [piano....]
|-----------------|---------------------|-0---0---|---------------------|------------------|
|-{8-7-8-10-8p7---|-{7-8-7-8-10-----7---|-1---0---|--------12-10-8----8-|-8----8-10-8------|
|-}7------------7-|-}7----------9-7---9-|-0---0---|---9-12---------11---|---11--------11-7-|
|-.9--------------|-.7------------------|-2---2---|-9-------------------|------------------|
|-----------------|---------------------|-3---2---|---------------------|------------------|
|-----------------|---------------------|-----0---|---------------------|------------------|

 C   B7      Em/D       Bm            A                 G
|----------||--------------|---------------------------|-------10----10---------------------|
|----------||-----8--------|---------------------------|----10----12----12-10---------------|
|----------||-------9-9/11-|-11-11-11/12-11-9----9-7/9-|----------------------12-11---------|
|----------||---9----------|------------------12-------|-12-------------------------12-10-9-|
|----------||--------------|---------------------------|------------------------------------|
|----------||--------------|---------------------------|------------------------------------|

 F/A                     B7                                               G
|-----------------------|----------------------------------------------------|
|-10\9------------------|------------10-13-12-10-----------------------------|
|------10\9----10-------|-------9-11-------------12-11-12p11-9---------------|
|-----------12----------|--------------------------------------12-10-9-------|
|-----------------12-8\-|-13\12----------------------------------------12-10-|
|-----------------------|----------------------------------------------------|

                     Edim                         Am6
|-------------------|---------------------------|-------------------|
|-------------------|-{11-10--------------------|-{10-12-13-12-10---|
|------11-12-11-9-9-|-}12----12-9---------------|-}11-------------9-|
|-9-12--------------|-.11---------11------------|-. 9---------------|
|-------------------|----------------13-10-9-10-|-------------------|
|-------------------|---------------------------|-------------------|

 B7            Em                       Edim   Am6       B7
|--------------------------------------|------|-------5-|-------||
|--------------------------------------|------|---------|-------||
|-{4-5-4-5p4---------------------------|------|-----5---|-{4----||
|-.4---------7-5p4---4/5p4-------5p4---|-8----|---4-----|-.4----||
|------------------7-------7p5h7-----7-|-7----|-3-------|-------||
|--------------------------------------|------|---------|-------||

  Em6    Em
||------|------------------------------------------|----------------------|
||------|-----------------7-5-5/8-8-8-7-7/10-10-10-|-7-8-7----------------|
||------|-------------4-7--------------------------|-------9-7-7/9--------|
||------|-----2-----5------------------------------|---------------9----9-|
||------|---2---5/7--------------------------------|-----------------12---|
||------|-0----------------------------------------|----------------------|

|--------------------------|-------3---7-5/7-7-12-------------------|------------------|
|-{12p10-------------------|-----5----------------12-10----10/12-12-|-12\10-8-10-8-----|
|-} 9----12-9\7-9----------|---4------------------------12----------|--------------9-9-|
|-. 9-------------7----7/9-|-5--------------------------------------|------------------|
|-------------------10-----|----------------------------------------|------------------|
|--------------------------|----------------------------------------|------------------|

[xylophone..]          [xylophone]          [xylophone]
|-----------|--------------------|--------------------|---------------|
|-----5-----|-5p3---5---5p3---5--|--------------------|---------------|
|-4---------|-----4---------4----|--------------------|---------------|
|-------5-2-|--------------------|-7p5-4h7---7p5-4h7--|---------------|
|-----------|--------------------|--------------------|-2h3p2p0-------|
|-----------|--------------------|--------------------|---------3p2p0-|

[Rhy. fig. ................................2x][w/Rhy. fig....................................
  Em7                                  Em6     A G Em     A G B Em     (Em)
|------------------------0-------------------|----------------------------------------------|
|---3----3------3------3-------3----3------2-|----------------------------------------------|
|---0----0----0------0---------0----0----0---|----------------------------------------------|
|-2----2----2------2---------2----2----2-----|----------------------------------------------|
|--------------------------------------------|----------------------------------------------|
|--------------------------------------------|----------------------------------------------|

................................................................................]
                                      [Riff.....................]     [Rep.&fade][intermezzo]
                                           Em9 Em7 Em   C    Em
|-------------------------------------|-3---2-----------------3-|---------------|----------|
|---------12-10-12-----------12-10-12-|-0---0---3---0---1-----0-|---------------|----------|
|-----7-9----------------7-9----------|-0---0---0---0---0-----0-|---------------|----------|
|-7/9----------------7/9--------------|---------2---2---2-------|-9\5-7p5h7/9\5-|----------|
|-------------------------------------|-----------------3-------|---------------|----------|
|-------------------------------------|-0---------------------0-|---------------|----------|

[w/Rhy. fig......................................................]
[piano...]                             [Repeat riff][piano..............]
 Em   Em7 Em                                         C                   Em
|-0------|-----------------------------|-----------|------------8-------|-0----|
|-0----3-|---------8-------------8-----|-----------|-1--------8--8------|-0----|
|-0----0-|-----7-9---9-------7-9---9---|-----------|-0------9------9----|-0----|
|-2----2-|-7/9-----------7/9-----------|-----------|-2---10----------10-|-2----|
|-2------|-----------------------------|-----------|-3------------------|-2----|
|-0------|-----------------------------|-----------|--------------------|-0----|





Private Investigations - Dire Straits (Chords version)



Intro: Em; Em/D; Bm; A; G; F/A; B7; G; Edim; Am6; B7; Em;

1:
Em/D                     Bm
    It's a mystery to me - the game commences
                  A
For the usual fee - plus expenses
G                         F/A
 Confidential information - it's in a diary
B7                         G
  This is my investigation - it's not a public inquiry

Edim / / /
Am6 / / /
B7 / / /
Em / / /


2:
Em/D                              Bm
    I go checking out the reports - digging up the dirt
                             A
You get to meet in all sorts - in this line of work
G                      F/A
 Treachery and treason - there's always an excuse for it
B7                           G
  And when I find the reason - I still can't get used to it

Edim / / /
Am6 / / /
B7 / / /
Em     D


3:
G                     D
 And what have you got at the end of the day?
C                  Em
 What have you got - to take away?
D   G                   D 
     A bottle of whisky - and a new set of lies
C                              B7
   Blinds on the windows and a pain behind the eyes


Repeat intro


Edim
 s Gone for life
Am6
 No compesation
B7                        Em
 Private investigations


Em6; Em;
Em7; Em6;
A; G; Em; A; G; B; Em;
Em9; Em7; Em; C; Em;

**************************************************************************************************

**************************************************************************************************

                  Sont Title : Twisting by the pool
                      Tabber : gbowerma@acs.ucalgary.ca


Twisting by the Pool, Dire Straits

A
We're going on a holiday, now
D                       E
Gonna take a villa or a small chalet
A
Costa Del (?), magnifico, 
             D                   E
You know the cost of living's so low

CHORUS :
D            E
Yeah, gonna be so neat
D             E
Dance, to the Euro-beat
D           E
Yeah, gonna be so cool
E
Twistin' by the (twisting-by-the)
E                                         A
Twistin' by the (twisting-by-the), by the pool
A               D
Twistin' by the pool
A               D
Twistin' by the pool (twistin' by the pool)
A               D
Twistin' by the pooooool

Verse 2 :
Sitting in a small cafe now
Swing-swing-swinging to the cabaret
Wanna see a movie, take in a show
Meet new people at the disco, yeah

Repeat chorus

Bm
And we can still get information
F#
Reading all about inflation
Bm                     D/E
And you're never gonna be out of reach
E
There's a clubhouse on the beach
E
A one, a two, a-one-a-two-a-three-a-four

Solo : Same chords as verse

A                   C#m
Mmmm, you're gonna look so cute
D           E
Sunglasses, bathing suit
A           C#m
Be the lady of my dreams
D                      E
Like the ladies in the magazines

Repeat chorus and fade

**************************************************************************************************

**************************************************************************************************

                          Song Title : So Far Away
                              Tabber : Glen Macon + Straits

E B A  E                          B                            E
	Here I am again in this mean old town and your so far away from me

                                    B                            E
	Now where are you when the sun gos down and your so far away from me

     A         C#m           B         E
	So far away from me, so far I just can't see

     A         C#m           B        A        E     B A E
	So far away from me, just so far from me

	                                   B                    E
       I'm tired of bein in love and bein all alone when your sofar away
from me

                                           B                     E
	I'm tired of makin out on the telephone cus your so far away from me

     A         C#m           B         E
	So far away from me, so far I just can't see

     A         C#m           B        A        E     B A E
	So far away from me, just so far from me

                                           B                    E
	And I get so tired when I have to explain your so far away from me

	                                      B                 E
	See you be in the sun and I be in the rain and your so far away from me

     A         C#m           B         E
	So far away from me, so far I just can't see

     A         C#m           B        A        E     B A E
	So far away from me, just so far from me


\_  \_  \_  \_  \_  \_  \_  \_ 

    \_\_\_      \_      \_                  Glen Macon 
   \_            \_\_  \_\_     any-net: macon@cbmvax.commodore.com
   \_             \_ \_\_ \_            Standard disclaimer...    
    \_   \_\_\_    \_  \_  \_   Commodore doesn't endorse what I say, I do
     \_       \_    \_      \_           Who wants to know...
       \_     \_     \_      \_      
	 \_\_\_       \_      \_    
	                                                
 \_  \_  \_  \_  \_  \_  \_  \_  \_  \_



**************************************************************************************************

**************************************************************************************************

                   Title : Money for Nothing
               Tabbed by : Straits + Steve Pike (bino_69@hotmail.com)

Not Played 1st time
   |
   V
|-----|---------------------------|---------------|
|-----|----------6-6--------------|---------------|
|-----|--7-7-5-7-5-5-7-5-5-3-3-0--|--0-0-3-0-3/5--|
|-5-5-|--5-5-5-5-----5-5-5-3-3-0--|--0-0-3-0-3/5--|
|-5-5-|---------------------------|---------------|
|-----|---------------------------|---------------|

|-----|-----------------------------|---------------|
|-----|----------6-6----------------|---------------|
|-0-0-|--7-7-5-7-5-5-5-7-7-5-3-3-0--|--0-0-3-0------|
|-0-0-|--5-5-5-5-----5-5-5-5-3-3-0--|--0-0-3-0-3/5--|
|-----|-----------------------------|----------3/5--|
|-----|-----------------------------|---------------|

Play the whole thing again, with the 1st bit you didnt play the 1st time.

Chorus:

We gotta install microwave ovens

e--------------------------------
b--------------------------------
g---3-----------------3----------
d---1-----------------3----------
a--------------------------------
E--------------------------------

Custom kitchen deliveries

e-------------------------------
b-------------------------------
g---3--------------5------------
d---1--------------3------------
a-------------------------------
E-------------------------------

We gotta move these refrigerators

e------------------------------
b------------------------------
g--------7----------------------
d--------5----------------------
a------------------------------
E------------------------------

We gotta move these colour TV's

e--------------------------------------
b--------------------------------------
g--5------------------7----------9-----
d--5------------------7----------9-----
a--------------------------------------
E--------------------------------------
 

**************************************************************************************************

**************************************************************************************************


             Song Title : Brothers in Ams
                 Tabber : Straits
               www.straits-tabs.tk

Intro solo:
0:35
E|---------------------------------------------------|
B|---------------------------------------------------|
G|---------------------------------------------------|
D|-4/6-8p6-6--6h8p6---8/9-11p9--------------9--13-11-|
A|------------------------------13p11-9h11-----------|
E|---------------------------------------------------|

                                        *Softly*
E|----------------------------------|----------------|
B|----------------------------------|----------------|
G|-6/8------------------------------|--4/6-----------|
D|------11-9------------------------|-------6p4h6----|
A|-------------13-11-9-11h13-11-11--|----------------|
E|----------------------------------|----------------|


Verse 1:
 1:09
E|--------------------------|------------------|-----------------------------|
B|--------------------------|------------------|-----------------------------|
G|--------------------------|---------8p6-6h8--|-----------------------------|
D|--------------13p11p9h11--|------------------|-----------13p8-8------------|
A|--------------------------|------------------|-----------------------------|
E|--------------------------|------------------|-----------------------------|
 ...mountains               ...lands          ...return to

                                             ****************Softly***************
E|----------------|------------------------|---------------------------------------|
B|----------------|------------------------|---------------------------------------|
G|----8h9------6--|------------------------|---------------------------------------|
D|----------------|--9p8h9-11-9-8p6-4-6-6--|--11...9-8-11-9-8---------9-13-11-13...|
A|----------------|------------------------|------------------11-9-11--------------|
E|----------------|------------------------|---------------------------------------|
...brothers in arms                                        (Last note very softly)


Verse 2:
   *Bass and Drums Kick In*
E|---------------------------|------------------------------------|
B|---------------------------|---------4.../5.../7...-------------|
G|--------------8p6-6--4h6---|------------------------------------|
D|---------------------------|------------------------------------|
A|---------------------------|------------------------------------|
E|---------------------------|------------------------------------|
...destruction               ...of fire


E|------------------------|----------------------|--------------------------|
B|------------------------|----------------------|--------------------------|
G|-----------11p9-8h10----|--------13p11-10h11-8-|--------------4...6...4...|
D|---------------------8--|----------------------|--------------------------|
A|------------------------|----------------------|--------------------------|
E|------------------------|----------------------|--------------------------|
...suffering             ...so bad             ...fear and alarm


E|----------------|
B|----------------|
G|--8h9----8---6--|
D|----------------|
A|----------------|
E|----------------|
..brohers in arms



End of 1st Verse Solo:
 3:05
E|---------------------------------------------------------------|
B|-----9---------------------------------------------------------|
G|--8----8----------------------------------------------8--------|
D|----------11>9>8---------8>9-11-9-8----------------9-----11----|
A|------------------11-11--------------11--9--11--11-------------|
E|---------------------------------------------------------------|


Verse 3:
3:12
E|------------------------|-------------------------|--------------------------|
B|------------------------|-------------------------|--------------------------|
G|-----------------8------|-------------------------|---------9p8--------8-----|
D|------------8-9----11---|--------8p9h8------9-11--|--------------11-9-----11-|
A|------9h11--------------|---------------11--------|--------------------------|
E|------------------------|-------------------------|--------------------------|
...worlds                  ...suns                   ...one world

E|-----------------------------------------------------------------------------
B|--------------------------------9--------------9-9p11h9-------------------9--
G|------------------11>13-11-9-9----11-8----8-11----------11-9--9-11-9-11-9----
D|----------------9----------------------11------------------------------------
A|-----------9-11--------------------------------------------------------------
E|-----------------------------------------------------------------------------
...different ones

-----------------------------------------------------------|---------|-------|
-11-9--------------------------4---------------------------|---------|-4/5/7-|
------9>8----8-----4h6-8p6-4-4---6-8...\6...\4...\3...\1...|---------|-------|
----------11---11------------------------------------------|-----6-6-|-------|
-----------------------------------------------------------|---------|-------|
-----------------------------------------------------------|---------|-------|
				                           ...hell   ...high

----------6b--------|------------------------|----------6-4---4-6b---4---6-4-|
------------9p7h9p7-|------------------------|--------------7----------7-----|
--------------------|-8...----------8p9-8----|-------------------------------|
--------------------|--------8-9-11-------9--|-------------------------------|
--------------------|-----11-----------------|-------------------------------|
--------------------|------------------------|-------------------------------|
...farewell         ...die		     ...starlight and every line...

|-----------------------------------|
|----5---4------------4/5-----------|
|-------------------------------6---|
|-----------------------------------|
|-----------------------------------|
|-----------------------------------|
...make war on our brothers in arms


End Solo:
4:51
------------------------------------------------------------------------------
-9-----------------------7h9b-7p9h7-------------------------------------------
---11-8----------------9------------11-11-9-11-9p8--------8-------------------
--------9------------------------------------------11-11----11-9-11-11-9-9----
-----------11>9-11-11---------------------------------------------------------
------------------------------------------------------------------------------

5:09    
--------------------------------------------------------------------
------------------------------------------------------9-12-12-------
---------------------6-----------8p6-------------8-11---------------
-(13)-9-11-13p11p9-6---6-9-11-11-----6-6----9h11--------------------
--------------------------------------------------------------------
--------------------------------------------------------------------
       ^^^^^^^^^^^^^^^^^^^^^^^^^^^^^^^^^
     *Most of this part is muted slightly*


5:21
-------------------------9--9-----------------------------------------
---------------9-12-12p9------12-11-9---------------------------------
-4>8-11p8h11--------------------------11-9-8--------------------------
---------------------------------------------11-9-8-9-8---------------
--------------------------------------------------------11-9-11-11----
----------------------------------------------------------------------

5:31
---------------------------
---------------------------
---4/6--8p6p4--8p6p4--6p4--
---------------------------
---------------------------
---------------------------
                    
5:38
--------------------------------------------------------------------------
--------------------------------------------------------------------------
-11-11-9-------9-------8-----11-9-8---------------------------------------
-11-11-9-9-11-----9-9---------------11-9---------9--4-6-4-6-4>6>4-6-6>4---
-----------------------------------------11-9-11--------------------------
--------------------------------------------------------------------------
^^^^^^^^^^^^^^^^^^^^^^^^^^^^^^^^^^^^^^^^^^^^^^^^^^^^^^^^^^^^^^^^^^^^^^^^^^
This is played extremely softly, i could hardly hear it so parts may be wrong


6:07
----------------------------------11-9------------11-9--------------
---------12-14-14-12----12-14-12-------12p11p9-12-------------------
------11-------------11---------------------------------------------
----9---------------------------------------------------------------
-11-----------------------------------------------------------------
--------------------------------------------------------------------

-9h11p9----11----9----
--------12----12---12-
----------------------
----------------------
----------------------
----------------------

Notes:-
/ = Slide up
\ = Slide down
p = Pull off
h = Hammer on
b = Bend
( ) = Muted
... = Long lasting soft whining note 
      (sry cant describe it, there might be a technical term 4 it i dont know,
       but u will c wot i mean when u listen to it) 

This is the version from the Brothers in arms album, the version on the 
Sultans of Swing album is slightly different with a shorter intro


**************************************************************************************************

**************************************************************************************************

                            Song title : Walk Of Life
                                Tabber : Roelof van Hemmen + David Wilschut

I've recognized three parts:
[PART 1] => Intro, chorus
[PART 2] => Verse
[PART 3] => Pre-chorus

Sequence: 1,1, 2,3,1, 2,3,1, 2,3,1 1 to fade


[PART 1]
   E                             A
e |--------------------------------|--------------------------------|
B |--------------------------------|--------------------------------|
G |--------------------------------|--------------------------------|
D |--------------------------------|----4-4-2-2-4-2-----4-4-2-2-4-2-|
A |----4-4-2-2-4-2-----4-4-2-2-4-2-|0---------------0---------------|
E |0---------------0---------------|--------------------------------|

   B                                A
e |--------------------------------|--------------------------------|
B |--------------------------------|--------------------------------|
G |----------4-----4---------------|--------------------------------|
D |4-4-4-4---4-----4---------------|2-2-4-2-2-2-4-2-----------------|
A |2-2-2-2---2-----2---------------|0-0-0-0-0-0-0-0-2-2-0-0---------|
E |------------------------4-------|------------------------4-4-2-2-|


[PART 2]
   E
e |--------------------------------| 4x
B |--------------------------------|
G |--------------------------------|
D |--------------------------------|
A |----4-4-2-2-4-2-----4-4-2-2-4-2-|
E |0---------------0---------------|

   A                             E
e |--------------------------------|--------------------------------|
B |--------------------------------|--------------------------------|
G |--------------------------------|--------------------------------|
D |----4-4-2-2-4-2-----4-4-2-2-4-2-|--------------------------------|
A |0---------------0---------------|----4-4-2-2-4-2-----4-4-2-2-4-2-|
E |--------------------------------|0---------------0---------------|

   A                                E               (1st time only)
e |--------------------------------|--------------------------------|
B |--------------------------------|------------------15------------|
G |--------------------------------|----------------16--16----------|
D |----4-4-2-2-4-2-----4-4-2-2-4-2-|2-------------------------------|
A |0---------------0---------------|--------------------------------|
E |--------------------------------|--------------------------------|


[PART 3]
   E               B                E      A
e |--------------------------------|--------------------------------|
B |--------------------------------|--------------------------------|
G |--------------------4-4-----4-4-|--------------------------------|
D |----------------4-4-4-4-4-4-4-4-|----------------2-2-4-2-2-2-4-2-|
A |2-2-4-2-----0-1-2-2-2-2-2-2-2-2-|2-2-4-2-2-2-4---0-0-0-0-0-0-0-0-|
E |0-0-0-0-4-4---------------------|0-0-0-0-0-0-0-0-----------------|

   E       E7      B                A               B
e |--------------------------------|--------------------------------|
B |--------------------------------|--------------------------------|
G |--------------------------------|--------------------------------|
D |----------------4-4-4-4---------|--------------------------------|
A |2-2-4-2-5-5-4-2-2-2-2-2---------|0---------------2-2-0-0---------|
E |0-0-0-0-0-0-0-0---------4-------|--------2---------------4-4-2-2-|


**************************************************************************************************

**************************************************************************************************

                               Sont Title : Calling Elvis
                                   Tabber : Alessandro Borille

--10p7------7----------------------------------------------------------
-------10p7---10p7---7------7------------------------------------------
-------------------9---9p10---10p9p7---9p7---7-----------------7-------
-------------------------------------9-----9---9p7---7-------7---9vvv--
---------------------------------------------------9---7h8h9-----------
-----------------------------------------------------------------------

Anyone feel like tabbing the full song? i would be very greatful

**************************************************************************************************

**************************************************************************************************

                               Song Title : Heavy Fuel
                                   Tabber : Mika Junikka

Intro 1:

E--------------------------------
H--------------------------------
G--------------------------------
D-9-9d-9-9d-9-9d-9d-9d-9---------      x4
A-7-7d-7-7d-7-7d-7d-7d-7-10-7----
E-----------------------------10-


Intro 2:

E--------------------------------------------------------------------
H--------------------------------------------------------------------
G--------------------------------------------------------------------
D-9-9-----------9--9-9-9------------9-9-----------9--9-9-9-7----7----
A-7-7-10-7------7--7-7-7-10b-7------7-7-10-7------7--7-7-7---10b--10b 
E----------10-7----------------10-7----------10-7--------------------


Intro 3:

E--------------------------------------------------------------------
H--------------------------------------------------------------------
G--------------------------------------------------------------------
D-9-9------------9-9-9------------9-9----------9--9-9-9-7-----7------
A-7-7-10-7-------7-7-7-10b-7------7-7-10-7-----7--7-7-7---10b---10b--
E----------10-7-------------10-7----------10-7-----------------------

**************************************************************************************************

**************************************************************************************************

                                   Song Title : On Every Street
                                      Tabbers : Guy Luke and Nir Gilboa

(E)[---------------]  Play the three used strings
(B)[---------------]  Simultaneously.
(G)[----2----------]
(D)[------3--------]
(A)[---------------]
(E)[1--------------]

(E)[---------------]  Play the three used strings
(B)[--------5------]  Simultaneously.
(G)[-------4-------]
(D)[---------------]
(A)[---------------]
(E)[-----3---------]

(E)[---------------]  Play the three used strings
(B)[---------------]  Simultaneously.
(G)[----2----------]
(D)[------3--------]
(A)[---------------]
(E)[----2----------]

(E)[---------------]  Play the used string + (G) & (E)
(B)[---------------]  Simultaneously.
(G)[---------------]
(D)[----2----------]
(A)[---------------]
(E)[---------------]

(E)[---------------]  Play the three used strings
(B)[---------------]  Simultaneously.
(G)[----2----------]
(D)[------3--------]
(A)[---------------]
(E)[1--------------]

(E)[---------------]  Play the used strings + (E)
(B)[---------------]  Simultaneously.
(G)[-------4-------]
(D)[--------5------]
(A)[---------------]
(E)[---------------]

(E)[---------------]  Play the three used strings
(B)[---------------]  Simultaneously.
(G)[--------5------]
(D)[--------5------]
(A)[---------------]
(E)[-----3---------]

(E)[---------------]  Play the three used strings
(B)[--------5------]  Simultaneously.
(G)[-------4-------]
(D)[---------------]
(A)[---------------]
(E)[-----3---------]

You can play it more complicated like this, with little sorta mini riff based around each chord

     F         G6              D/F#       Em7           F          Em
     |         |               |          |             |          |
||--------0--(0)-----------|------------------------|--------------------------
||----------------0-----3--|--(3)-------------------|----------0--(0)--------1-
|*--2----------------------|----------0--(0)-----2--|--(2)-------------0-------
|*-----0-------------0-----|-------0----------0-----|-------0-------------2----
||-------------------------|------------------------|--------------------------
||--1---------3------------|---2----------0---------|---1----------0-----------
 
 
     Gsus4         G
     |             |
 |------------------------------||
 |--(1)--------0--(0)--------0--||
 |-------0-------------0--------*|
 |----------0------0------0-----*|
 |------------------------------||
 |---3--------------------------||


**************************************************************************************************

**************************************************************************************************


                       Local Hero by Dire Straits
                          Live "On The Night"
                          Tabbed by Straits


|---|-------------------|---------|------------|---5-----5-4-----5--|
|---|---7-----7-5-----7-|-----5-7-|-10-------8-|--7----7-------7----|
|---|--7----7-------7---|---7-----|-7----7-----|-6---6-------6------|
|-7-|-7---7-------7-----|-7-------|----7---7---|--------------------|
|---|-------------------|---------|------------|--------------------|
|---|-------------------|---------|------------|--------------------|


|-----4-5-|-----4-5-7-5-----|-------------|---------|-------------------|
|---7-----|---7---------9-7-|-8---7---8---|-----7-8-|-----7-8h10p8-7-5--|
|-6-------|-6---------------|---7---7-----|---9-----|---9---------------|
|---------|-----------------|-----------9-|-9-------|-9-----------------|
|---------|-----------------|-------------|---------|-------------------|
|---------|-----------------|-------------|---------|-------------------|


|-------------------|-------|--------------------------|-------------|
|---7-----7-5-----7-|-----7-|---7-----7-5-7-8-10p8-7-5-|-8---7---8---|
|--7----7-------7---|---7---|--7----7------------------|---7---7-----|
|-7---7-------7-----|-7-----|-7---7--------------------|-----------9-|
|-------------------|-------|--------------------------|-------------|
|-------------------|-------|--------------------------|-------------|


|------------------------|--------------------------------------|-------------|
|--7-8-5/7-----7-5-----7-|-------7---7-----7-5-----7-8-10p8-7-5-|-3---2---2-3-|
|-9----------7-------7---|-5/7------7----7-------7--------------|---4---4-----|
|9---------7-------7-----|-----7---7---7-------7----------------|-------------|
|------------------------|--------------------------------------|-------------|
|------------------------|--------------------------------------|-------------|


|-----------------|-------------|-----------------|
|---3-3---3-2-3---|-3---2---2-3-|---2-3---2-2h3p2-|
|-4-----4-------4-|---4---4-----|-4-----4---------|
|-----------------|-------------|-----------------|
|-----------------|-------------|-----------------|
|-----------------|-------------|-----------------|


1:41 mins

|---------------------|------------------------|---------------------|
|---------------------|---------12-14-12-------|---------10----------|
|-2/11-11-11-11-14-14-|-7/11-14----------14-11-|-11p9h11----9-9-7-9--|
|---------------------|------------------------|---------------------|
|---------------------|------------------------|---------------------|
|---------------------|------------------------|---------------------|


|---------------------|---------------------------|--------------------------------------|
|-------7-------------|---------------------------|-----------15-14-12-14-12h14p12-------|
|---7-9---7-----------|-2-7/9-9/11-11-11-11-14-14-|-7-9-11-14----------------------14-11-|
|-7---------7-9-9p7h9-|---------------------------|--------------------------------------|
|---------------------|---------------------------|--------------------------------------|
|---------------------|---------------------------|--------------------------------------|


|---------------------|-------------------------|
|---------------------|-------7---------7-------|
|-11^-9/11-14-9-9-7-9-|---7-9---7-----7---9-7-7-|
|---------------------|-7---------7-9-----------|
|---------------------|-------------------------|
|---------------------|-------------------------|


|----------10-12-10-9---------7-----7-5-|--------------------------|
|-----7-10------------10-7-10---8-5-----|-8p6h8-10-8-7---------7---|
|-7h9-----------------------------------|--------------7-----7---9-|
|---------------------------------------|----------------7-9-------|
|---------------------------------------|--------------------------|
|---------------------------------------|--------------------------|


|-10^-10-9-10---------------------------------------|
|-------------10-8h10p8-7-10---7-10-7-8-7-----------|
|----------------------------7----------------------|
|-----------------------------------------7-9-9-7-7-|
|---------------------------------------------------|
|---------------------------------------------------|


2:48
|-----------------|------7-9-7h9p7------|---------------------------|
|---7-----7-10-10-|-7-10-----------10-7-|-------7------------7-8----|
|---7---7---------|---------------------|---7-9---7^-------------9--|
|-7---7-----------|---------------------|-7----------7-9-9-7--------|
|-----------------|---------------------|---------------------------|
|-----------------|---------------------|---------------------------|


|---------------|------------------------|-14-12--------------------------|
|---8-7-7-8-----|-7-8--------------------|-------15-14-12-14-12-10h12p10--|
|-----------9---|-----9-7-9-7-9-11-14-14-|--------------------------------|
|-7-----------9-|------------------------|--------------------------------|
|---------------|------------------------|--------------------------------|
|---------------|------------------------|--------------------------------|


|---------------------------|----------------------------|
|-7/12-12-------------------|-------7-7^---------7-------|
|-7/11-11-11-11-11-9-7-11-9-|---7-9------7-----7---9-7-7-|
|---------------------------|-7------------7-9-----------|
|---------------------------|----------------------------|
|---------------------------|----------------------------|


|---------------|------------------|---------------|
|-------7-------|---------------10-|---------------|
|---7-9---7p6-4-|-7h9-11-9h11p9----|--7---------7--|
|-7-------------|------------------|--7-----4h7----|
|---------------|------------------|----5h7--------|
|---------------|------------------|---------------|
comments
print report bad tab
5 comments total. Showing first comments. show 1 bad comment
0 reply
StefanPrice wrote on September 10 2005, 12:00 am

"The amazing £2Million steel guitar built around Mark"

Um LOL! The guitar in question is a National "Duolian" single cone resonator, its worth a few grand and was built around 1936.
Stefan Price. http://www.stefanprice.com

-1 reply
politurn wrote on March 20 2006, 12:26 am

HAH

I want to post or [tab]
guest
You may want to rate the tab now too:
select rating
Please do not post tabs as comments. Select "correction" instead!