Oops, an error
Loading. Please wait.

Best Face Tab

1,026 views 1 this week
1 commentread comment
1 2 3 4 5
excellent!
x 1
add to favorites launch autoscroll
font size
0
reset
Autoscroll
+/-
esc
set tempo
stop
Contributor
Difficulty
intermediate
WARNING: You are trying to view
                                    content from Ultimate-Guitar.com
                                    in an unauthorized application,
                                    which is prohibited.

                                    Please use an official Ultimate
                                    Guitar Tabs application for iPhone,
                                    iPad or Android to access legitimate
                                    chords, guitar, bass, and drum tabs
                                    from Ultimate-Guitar.com database.

                                    Type "ultimate guitar tabs" in Apple
                                    App Store's or Android Market's
                                    search to find the application.
     Dirty Pretty Things
         Best Face
Barat/Rossomando/Hammond/Powell

Guitar 1: Anthony Rossomando (Stan) Lead Electric
Guitar 2: Anthony Rossomando (OD) Rythym Electric

Intro:

Stan:
*
e-----12---------------12---------10-------------------|
B---13---13---------13-13-------10--10-----9-9--10--12-|
G-14-------14-----12---12-----10------10---------------|
D------------------------------------------------------|
A------------------------------------------------------|
E------------------------------------------------------|

e-----12---------------12---------10-------------------|
B---13---13---------13-13-------10--10-----9-9--10--12-|
G-14-------14-----12---12-----10------10---------------|
D------------------------------------------------------|
A------------------------------------------------------|
E------------------------------------------------------|

OD:
*
e-12--12---------------12-----10-----10---------------|
B-13--13---13-----13---13-----10-----10---9-9--10--12-|
G-14-------14-----12---12-----10-----10---------------|
D-----------------------------------------------------|
A-----------------------------------------------------|
E-----------------------------------------------------|

e-12--12---------------12-----10-----10---------------|
B-13--13---13-----13---13-----10-----10---9-9--10--12-|
G-14-------14-----12---12-----10-----10---------------|
D-----------------------------------------------------|
A-----------------------------------------------------|
E-----------------------------------------------------|

Verse 1:
shock...  bites...       ladies...       fight...
e---------7----7---------7----7----------7----7-------|
B---------8----8---------8----7----------8----8-------|
G---------9----9---------9----9----------9----9-------|
D-----------------------------------------------------|
A-----------------------------------------------------|
E-----------------------------------------------------|
  go...                        come on sweetheart...
e-7--7--7--7--5-5-5-5-5-5-5-5---5---8--5---8--5---8--5---8-|
B-9--9--9--9--7-7-7-7-7-7-7-7---7--10--7--10--7--10--7--10-|
G-9--9--9--9--7-7-7-7-7-7-7-7---7--10--7--10--7--10--7--10-|
D-9--9--9--9--7-7-7-7-7-7-7-7---7--10--7--10--7--10--7--10-|
A-7--7--7--7--5-5-5-5-5-5-5-5---5---8--5---8--5---8--5---8-|
E----------------------------------------------------------|

* oh!
e-----12---------------12---------10-------------------|
B---13---13---------13-13-------10--10-----9-9--10--12-|
G-14-------14-----12---12-----10------10---------------|
D------------------------------------------------------|
A------------------------------------------------------|
E------------------------------------------------------|
                                                      *
e-----12---------------12---------10-------------------|
B---13---13---------13-13-------10--10-----9-9--10--12-|
G-14-------14-----12---12-----10------10---------------|
D------------------------------------------------------|
A------------------------------------------------------|
E------------------------------------------------------|
it's...   'neath...      in time...     fight...
e---------7----7---------7----7----------7----7-------|
B---------8----8---------8----7----------8----8-------|
G---------9----9---------9----9----------9----9-------|
D-----------------------------------------------------|
A-----------------------------------------------------|
E-----------------------------------------------------|
block...  out... *                      turn out...  *
e---------7----7------------------------7-----7-------|
B---------8----8------------------------8-----8-------|
G---------9----9------------------------9-----9-------|
D-----------------------------------------------------|
A-----------------------------------------------------|
E-----------------------------------------------------|
  lights...                        oh oh  oh  oh  oh oh oh oh
e-7--7--7--7--5-5-5-5-5-5-5-5---5---8--5---8--5---8--5---8-|
B-9--9--9--9--7-7-7-7-7-7-7-7---7--10--7--10--7--10--7--10-|
G-9--9--9--9--7-7-7-7-7-7-7-7---7--10--7--10--7--10--7--10-|
D-9--9--9--9--7-7-7-7-7-7-7-7---7--10--7--10--7--10--7--10-|
A-7--7--7--7--5-5-5-5-5-5-5-5---5---8--5---8--5---8--5---8-|
E----------------------------------------------------------|
  oh!!!!                la  la   la  she...
e-7-7-7-7-7-7-7-7-7-7-7-7-7-7-7-7-7-7-7-7-|
B-9-9-9-9-9-9-9-9-9-9-9-9-9-9-9-9-9-9-9-9-|
G-9-9-9-9-9-9-9-9-9-9-9-9-9-9-9-9-9-9-9-9-|
D-9-9-9-9-9-9-9-9-9-9-9-9-9-9-9-9-9-9-9-9-|
A-7-7-7-7-7-7-7-7-7-7-7-7-7-7-7-7-7-7-7-7-|
E-----------------------------------------|

OD:
*
e-12--12---------------12-----10-----10---------------|
B-13--13---13-----13---13-----10-----10---9-9--10--12-|
G-14-------14-----12---12-----10-----10---------------|
D-----------------------------------------------------|
A-----------------------------------------------------|
E-----------------------------------------------------|
                                                     *
e-12--12---------------12-----10-----10---------------|
B-13--13---13-----13---13-----10-----10---9-9--10--12-|
G-14-------14-----12---12-----10-----10---------------|
D-----------------------------------------------------|
A-----------------------------------------------------|
E-----------------------------------------------------|
*
e-12--12---------------12-----10-----10---------------|
B-13--13---13-----13---13-----10-----10---9-9--10--12-|
G-14-------14-----12---12-----10-----10---------------|
D-----------------------------------------------------|
A-----------------------------------------------------|
E-----------------------------------------------------|
                                                     *
e-12--12---------------12-----10-----10---------------|
B-13--13---13-----13---13-----10-----10---9-9--10--12-|
G-14-------14-----12---12-----10-----10---------------|
D-----------------------------------------------------|
A-----------------------------------------------------|
E-----------------------------------------------------|

Chorus:

Stan:
  best face...  place...      lipgloss...  grace...
e-5--5--5--5---8---8---8---8--5--5--5--5---8---8---8---8-|
B-5--5--5--5---8---8---8---8--5--5--5--5---8---8---8---8-|
G-6--6--6--6---9---9---9---9--6--6--6--6---9---9---9---9-|
D-7--7--7--7--10--10--10--10--7--7--7--7--10--10--10--10-|
A-7--7--7--7--10--10--10--10--7--7--7--7--10--10--10--10-|
E-5--5--5--5---8---8---8---8--5--5--5--5---8---8---8---8-|
 nothing in...               can have...
e-10-10-10-10-10-10-10-10-10-10-10-10-10-|
B-10-10-10-10-10-10-10-10-10-10-10-10-10-|
G-11-11-11-11-11-11-11-11-11-11-11-11-11-|
D-12-12-12-12-12-12-12-12-12-12-12-12-12-|
A-12-12-12-12-12-12-12-12-12-12-12-12-12-|
E-10-10-10-10-10-10-10-10-10-10-10-10-10-|
  heed this...  advice...     tell me...   lies...
e-5--5--5--5---8---8---8---8--5--5--5--5---8---8---8---8-|
B-5--5--5--5---8---8---8---8--5--5--5--5---8---8---8---8-|
G-6--6--6--6---9---9---9---9--6--6--6--6---9---9---9---9-|
D-7--7--7--7--10--10--10--10--7--7--7--7--10--10--10--10-|
A-7--7--7--7--10--10--10--10--7--7--7--7--10--10--10--10-|
E-5--5--5--5---8---8---8---8--5--5--5--5---8---8---8---8-|
 to these...            skits the...
e-10-10-10-10-10-10-10-10-10-10-10-10-10-|
B-10-10-10-10-10-10-10-10-10-10-10-10-10-|
G-11-11-11-11-11-11-11-11-11-11-11-11-11-|
D-12-12-12-12-12-12-12-12-12-12-12-12-12-|
A-12-12-12-12-12-12-12-12-12-12-12-12-12-|
E-10-10-10-10-10-10-10-10-10-10-10-10-10-|

Post-Chorus:

Stan:
*
e-------------------------------------------------------------|
B-------------------------------------------------------------|
G--5--5--5-----5--5--5--5-----5--5--5--5-----5--5--5--5-----5-|
D-7--7--7--6-6---7--7--7--6-6---7--7--7--6-6---7--7--7--6-6---|
A-------------------------------------------------------------|
E-------------------------------------------------------------|

e-----12---------------12---------10-------------------|
B---13---13---------13-13-------10--10-----9-9--10--12-|
G-14-------14-----12---12-----10------10---------------|
D------------------------------------------------------|
A------------------------------------------------------|
E------------------------------------------------------|

e-----12---------------12---------10-------------------|
B---13---13---------13-13-------10--10-----9-9--10--12-|
G-14-------14-----12---12-----10------10---------------|
D------------------------------------------------------|
A------------------------------------------------------|
E------------------------------------------------------|

OD:
*
e-------------------------------------------------------------|
B-------------------------------------------------------------|
G--5--5--5-----5--5--5--5-----5--5--5--5-----5--5--5--5-----5-|
D-7--7--7--6-6---7--7--7--6-6---7--7--7--6-6---7--7--7--6-6---|
A-------------------------------------------------------------|
E-------------------------------------------------------------|

e-12--12---------------12-----10-----10---------------|
B-13--13---13-----13---13-----10-----10---9-9--10--12-|
G-14-------14-----12---12-----10-----10---------------|
D-----------------------------------------------------|
A-----------------------------------------------------|
E-----------------------------------------------------|

e-12--12---------------12-----10-----10---------------|
B-13--13---13-----13---13-----10-----10---9-9--10--12-|
G-14-------14-----12---12-----10-----10---------------|
D-----------------------------------------------------|
A-----------------------------------------------------|
E-----------------------------------------------------|

Verse 2:
  crying hearts...   broken tarts...      the drinks go...
e--9---9---9---7--7----9---9---9---7--7----9---9---9---7--7-|
B-10--10--10---8--8---10--10--10---8--8---10--10--10---8--8-|
G-11--11--11---9--9---11--11--11---9--9---11--11--11---9--9-|
D-----------------------------------------------------------|
A-----------------------------------------------------------|
E-----------------------------------------------------------|
  drinks go on...
e--9---9---9---7--7-|
B-10--10--10---8--8-|
G-11--11--11---9--9-|
D-------------------|
A-------------------|
E-------------------|
sounding...                      come on sweetheart...
e-7--7--7--7--5-5-5-5-5-5-5-5---5---8--5---8--5---8--5---8-|
B-9--9--9--9--7-7-7-7-7-7-7-7---7--10--7--10--7--10--7--10-|
G-9--9--9--9--7-7-7-7-7-7-7-7---7--10--7--10--7--10--7--10-|
D-9--9--9--9--7-7-7-7-7-7-7-7---7--10--7--10--7--10--7--10-|
A-7--7--7--7--5-5-5-5-5-5-5-5---5---8--5---8--5---8--5---8-|
E----------------------------------------------------------|
*                                               you look pretty...
e-----12-----15-15-13-12-----12-----15-15-13-12-----12-----15-15-13-12-|
B---13--13-----------------13--13-----------------13--13---------------|
G-14------14-------------14------14-------------14------14-------------|
D----------------------------------------------------------------------|
A----------------------------------------------------------------------|
E----------------------------------------------------------------------|
   for a pedestrian...    this night clubs...   but be wary...
e-----12-----15-15-13-12-----12-----15-15-13-12-----12-----15-15-13-12-|
B---13--13-----------------13--13-----------------13--13---------------|
G-14------14-------------14------14-------------14------14-------------|
D----------------------------------------------------------------------|
A----------------------------------------------------------------------|
E----------------------------------------------------------------------|
mounting...                   oh oh oh oh oh oh oh oh oh
e-7--7--7--7--5-5-5-5-5-5-5-5---5---8--5---8--5---8--5---8-|
B-9--9--9--9--7-7-7-7-7-7-7-7---7--10--7--10--7--10--7--10-|
G-9--9--9--9--7-7-7-7-7-7-7-7---7--10--7--10--7--10--7--10-|
D-9--9--9--9--7-7-7-7-7-7-7-7---7--10--7--10--7--10--7--10-|
A-7--7--7--7--5-5-5-5-5-5-5-5---5---8--5---8--5---8--5---8-|
E----------------------------------------------------------|
  oh!!!!                la  la   la  she...
e-7-7-7-7-7-7-7-7-7-7-7-7-7-7-7-7-7-7-7-7-|
B-9-9-9-9-9-9-9-9-9-9-9-9-9-9-9-9-9-9-9-9-|
G-9-9-9-9-9-9-9-9-9-9-9-9-9-9-9-9-9-9-9-9-|
D-9-9-9-9-9-9-9-9-9-9-9-9-9-9-9-9-9-9-9-9-|
A-7-7-7-7-7-7-7-7-7-7-7-7-7-7-7-7-7-7-7-7-|
E-----------------------------------------|

OD:
*
e-----12-----15-15-13-12-----12-----15-15-13-12-----12-----15-15-13-12-|
B---13--13-----------------13--13-----------------13--13---------------|
G-14------14-------------14------14-------------14------14-------------|
D----------------------------------------------------------------------|
A----------------------------------------------------------------------|
E----------------------------------------------------------------------|

e-----12-----15-15-13-12-----12-----15-15-13-12-----12-----15-15-13-12-|
B---13--13-----------------13--13-----------------13--13---------------|
G-14------14-------------14------14-------------14------14-------------|
D----------------------------------------------------------------------|
A----------------------------------------------------------------------|
E----------------------------------------------------------------------|

Chorus:

Stan:
  best face...  place...      lipgloss...  grace...
e-5--5--5--5---8---8---8---8--5--5--5--5---8---8---8---8-|
B-5--5--5--5---8---8---8---8--5--5--5--5---8---8---8---8-|
G-6--6--6--6---9---9---9---9--6--6--6--6---9---9---9---9-|
D-7--7--7--7--10--10--10--10--7--7--7--7--10--10--10--10-|
A-7--7--7--7--10--10--10--10--7--7--7--7--10--10--10--10-|
E-5--5--5--5---8---8---8---8--5--5--5--5---8---8---8---8-|
 nothing in...               can have...
e-10-10-10-10-10-10-10-10-10-10-10-10-10-|
B-10-10-10-10-10-10-10-10-10-10-10-10-10-|
G-11-11-11-11-11-11-11-11-11-11-11-11-11-|
D-12-12-12-12-12-12-12-12-12-12-12-12-12-|
A-12-12-12-12-12-12-12-12-12-12-12-12-12-|
E-10-10-10-10-10-10-10-10-10-10-10-10-10-|
  heed this...  advice...     tell me...   lies...
e-5--5--5--5---8---8---8---8--5--5--5--5---8---8---8---8-|
B-5--5--5--5---8---8---8---8--5--5--5--5---8---8---8---8-|
G-6--6--6--6---9---9---9---9--6--6--6--6---9---9---9---9-|
D-7--7--7--7--10--10--10--10--7--7--7--7--10--10--10--10-|
A-7--7--7--7--10--10--10--10--7--7--7--7--10--10--10--10-|
E-5--5--5--5---8---8---8---8--5--5--5--5---8---8---8---8-|
 to these...            skits the...
e-10-10-10-10-10-10-10-10-10-10-10-10-10-|
B-10-10-10-10-10-10-10-10-10-10-10-10-10-|
G-11-11-11-11-11-11-11-11-11-11-11-11-11-|
D-12-12-12-12-12-12-12-12-12-12-12-12-12-|
A-12-12-12-12-12-12-12-12-12-12-12-12-12-|
E-10-10-10-10-10-10-10-10-10-10-10-10-10-|

Post-Chorus:

Stan:

e-7-7-7-7-7-7-7-7--10-10-10-10-10-10-10-10-|
B-9-9-9-9-9-9-9-9--12-12-12-12-12-12-12-12-|
G-9-9-9-9-9-9-9-9--12-12-12-12-12-12-12-12-|
D-9-9-9-9-9-9-9-9--12-12-12-12-12-12-12-12-|
A-7-7-7-7-7-7-7-7--10-10-10-10-10-10-10-10-|
E------------------------------------------|

Break:

Stan:

e-5-------------7-------------3-------------8-------------5-|
B-5-------------9-------------3-------------8-------------5-|
G-6-------------9-------------4-------------9-------------6-|
D-7-------------9-------------5------------10-------------7-|
A-7-------------7-------------5------------10-------------7-|
E-5---------------------------3-------------8-------------5-|

e-7-------------3-------------8-------------5--5-5-5--0-0-0-0-0-|
B-9-------------3-------------8-------------5--5-5-5--0-0-0-0-0-|
G-9-------------4-------------9-------------6--6-6-6--1-1-1-1-1-|
D-9-------------5------------10-------------7--7-7-7--2-2-2-2-2-|
A-7-------------5------------10-------------7--7-7-7--2-2-2-2-2-|
E---------------3-------------8-------------5--5-5-5--0-0-0-0-0-|
*
e-------------------------------------------------------------|
B-------------------------------------------------------------|
G--5--5--5-----5--5--5--5-----5--5--5--5-----5--5--5--5-----5-|
D-7--7--7--6-6---7--7--7--6-6---7--7--7--6-6---7--7--7--6-6---|
A-------------------------------------------------------------|
E-------------------------------------------------------------|
 the best...     the walk...    the beat...     your monkey...
e-------------------------------------------------------------|
B-------------------------------------------------------------|
G--5--5--5-----5--5--5--5-----5--5--5--5-----5--5--5--5-----5-|
D-7--7--7--6-6---7--7--7--6-6---7--7--7--6-6---7--7--7--6-6---|
A-------------------------------------------------------------|
E-------------------------------------------------------------|
  dance your...  you dance...     you dance...      oracle...
e-------------------------------------------------------------|
B-------------------------------------------------------------|
G--5--5--5-----5--5--5--5-----5--5--5--5-----5--5--5--5-----5-|
D-7--7--7--6-6---7--7--7--6-6---7--7--7--6-6---7--7--7--6-6---|
A-------------------------------------------------------------|
E-------------------------------------------------------------|

OD:
*
e-------------------------------------------------------------|
B-------------------------------------------------------------|
G--5--5--5-----5--5--5--5-----5--5--5--5-----5--5--5--5-----5-|
D-7--7--7--6-6---7--7--7--6-6---7--7--7--6-6---7--7--7--6-6---|
A-------------------------------------------------------------|
E-------------------------------------------------------------|

e-------------------------------------------------------------|
B-------------------------------------------------------------|
G--5--5--5-----5--5--5--5-----5--5--5--5-----5--5--5--5-----5-|
D-7--7--7--6-6---7--7--7--6-6---7--7--7--6-6---7--7--7--6-6---|
A-------------------------------------------------------------|
E-------------------------------------------------------------|

e-------------------------------------------------------------|
B-------------------------------------------------------------|
G--5--5--5-----5--5--5--5-----5--5--5--5-----5--5--5--5-----5-|
D-7--7--7--6-6---7--7--7--6-6---7--7--7--6-6---7--7--7--6-6---|
A-------------------------------------------------------------|
E-------------------------------------------------------------|

Chorus:

Stan:
  best face...  place...      lipgloss...  grace...
e-5--5--5--5---8---8---8---8--5--5--5--5---8---8---8---8-|
B-5--5--5--5---8---8---8---8--5--5--5--5---8---8---8---8-|
G-6--6--6--6---9---9---9---9--6--6--6--6---9---9---9---9-|
D-7--7--7--7--10--10--10--10--7--7--7--7--10--10--10--10-|
A-7--7--7--7--10--10--10--10--7--7--7--7--10--10--10--10-|
E-5--5--5--5---8---8---8---8--5--5--5--5---8---8---8---8-|
 nothing in...               can have...
e-10-10-10-10-10-10-10-10-10-10-10-10-10-|
B-10-10-10-10-10-10-10-10-10-10-10-10-10-|
G-11-11-11-11-11-11-11-11-11-11-11-11-11-|
D-12-12-12-12-12-12-12-12-12-12-12-12-12-|
A-12-12-12-12-12-12-12-12-12-12-12-12-12-|
E-10-10-10-10-10-10-10-10-10-10-10-10-10-|
  heed this...  advice...     tell me...   lies...
e-5--5--5--5---8---8---8---8--5--5--5--5---8---8---8---8-|
B-5--5--5--5---8---8---8---8--5--5--5--5---8---8---8---8-|
G-6--6--6--6---9---9---9---9--6--6--6--6---9---9---9---9-|
D-7--7--7--7--10--10--10--10--7--7--7--7--10--10--10--10-|
A-7--7--7--7--10--10--10--10--7--7--7--7--10--10--10--10-|
E-5--5--5--5---8---8---8---8--5--5--5--5---8---8---8---8-|
 to these...            skits the...
e-10-10-10-10-10-10-10-10-10-10-10-10-10-|
B-10-10-10-10-10-10-10-10-10-10-10-10-10-|
G-11-11-11-11-11-11-11-11-11-11-11-11-11-|
D-12-12-12-12-12-12-12-12-12-12-12-12-12-|
A-12-12-12-12-12-12-12-12-12-12-12-12-12-|
E-10-10-10-10-10-10-10-10-10-10-10-10-10-|
comments
We did not receive enough feedback on this tab! Please rate:
print report bad tab
1 2 3 4 5
1 comment total.
0 reply
Charlie00004444 wrote on February 24 2009, 02:19 pm

Brilliant tab mate spot on! cheers!

I want to post or [tab]
guest
You may want to rate the tab now too:
select rating
Please do not post tabs as comments. Select "correction" instead!