Oops, an error
Loading. Please wait.

Exorcistic Rites Tab

64 views 1 this week
no commentswrite comment
1 2 3 4 5
please rate
add to favorites launch autoscroll
font size
0
reset
Autoscroll
+/-
esc
set tempo
stop
Contributor
Tuning
D A D G B E
WARNING: You are trying to view
                                    content from Ultimate-Guitar.com
                                    in an unauthorized application,
                                    which is prohibited.

                                    Please use an official Ultimate
                                    Guitar Tabs application for iPhone,
                                    iPad or Android to access legitimate
                                    chords, guitar, bass, and drum tabs
                                    from Ultimate-Guitar.com database.

                                    Type "ultimate guitar tabs" in Apple
                                    App Store's or Android Market's
                                    search to find the application.
Dismantle - Exorcistic Rites

DROP D




gtr1
                     NH  NH  NH                            NH  NH  NH          
     E  S S E  S S   S   S   S S E   E     E  S S E  S S   S   S   S S  E  E   
D||-------------------------------------|-------------------------------------|
A||--------------------<>8--------------|--------------------<>7--------------|
F||--7------7--------------<>7---9--10--|--6------6--------------<>6---10--9--|
C||--5--5-5-5--5-5-------------5-7---8--|--4--4-4-4--4-4-------------4--8--7--|
G||--5--5-5-5--5-5-<>5------------------|--4--4-4-4--4-4-<>4------------------|
D||-------------------------------------|-------------------------------------|


                  NH  NH  NH                            NH  NH  NH          
  E  S S E  S S   S   S   S S E   E     E  S S E  S S   S   S   S S  E  E   
-------------------------------------|-------------------------------------|
--------------------<>8--------------|--------------------<>7--------------|
--7------7--------------<>7---9--10--|--6------6--------------<>6---10--9--|
--5--5-5-5--5-5-------------5-7---8--|--4--4-4-4--4-4-------------4--8--7--|
--5--5-5-5--5-5-<>5------------------|--4--4-4-4--4-4-<>4------------------|
-------------------------------------|-------------------------------------|


   S E  S E  S S Q      Q        S E  S E  S S Q      Q        S E  S E  S S  
-----------------------------|-----------------------------|-----------------|
-----------------------------|-----------------------------|-----------------|
--10-9--7-9--7-6-7------L----|--10-9--7-9--7-6-9~-----L----|--10-9--7-9--7-6-|
---8-7--5-7--5-4-5~-----L----|---8-7--5-7--5-4-7~-----L----|---8-7--5-7--5-4-|
-----------------------------|-----------------------------|-----------------|
-----------------------------|-----------------------------|-----------------|


  T T T T T T T T T T T T T T T T T T T T T T T T T T T T T T T T  
------------------------------------------------------------------|
------------------------------------------------------------------|
--------------------------------------------------5-7-5-0-3-5-3-0-|
--5-5-5-5-5-5-5-5-7-5-5-5-5-5-5-5-8-5-5-5-5-5-5-5-----------------|
------------------------------------------------------------------|
------------------------------------------------------------------|


  T T T T T T T T T T T T T T T T T T T T T T T T T T T T T T T T  
------------------------------------------------------------------|
------------------------------------------------------------------|
------------------------------------------------------------------|
--4-4-4-4-4-4-4-4-5-4-4-4-4-4-4-4---------------------------------|
----------------------------------5-5-5-5-5-6-6-6-6---------------|
----------------------------------------------------5-5-5-5-6-6-6-|


  T T T T T T T T T T T T T T T T T T T T T T T T T T T T T T T T  
------------------------------------------------------------------|
------------------------------------------------------------------|
--------------------------------------------------5-7-5-0-3-5-3-0-|
--5-5-5-5-5-5-5-5-7-5-5-5-5-5-5-5-8-5-5-5-5-5-5-5-----------------|
------------------------------------------------------------------|
------------------------------------------------------------------|


  T T T T T T T T T T T T T T T T T T T T T T T T T T T T T T T T  
------------------------------------------------------------------|
------------------------------------------------------------------|
------------------------------------------------------------------|
--4-4-4-4-4-4-4-4-5-4-4-4-4-4-4-4---------------------------------|
----------------------------------5-5-5-5-5-6-6-6-6---------------|
----------------------------------------------------5-5-5-5-6-6-6-|


                                ^                                      ^      
  T T T T T T T T S S S S E  E  Q        T T T T T T T T S S S S E  E  Q      
--------------------------------3-----|--------------------------------2-----|
--------------------------------3-----|--------------------------------2-----|
--------------------------------3~----|--------------------------------2~----|
------------------1-0--------5--------|------------------1-0--------4--------|
----------------------1-0-------------|----------------------1-0-------------|
--3-3-3-3-3-3-3-3---------3-----------|--2-2-2-2-2-2-2-2---------2-----------|


                                ^                                      ^      
  T T T T T T T T S S S S E  E  Q        T T T T T T T T S S S S E  E  Q      
--------------------------------3-----|--------------------------------2-----|
--------------------------------3-----|--------------------------------2-----|
--------------------------------3~----|--------------------------------2~----|
------------------1-0--------5--------|------------------1-0--------4--------|
----------------------1-0-------------|----------------------1-0-------------|
--3-3-3-3-3-3-3-3---------3-----------|--2-2-2-2-2-2-2-2---------2-----------|


  T T T T T T T T S S T T T T S S T T T T S S S S  
--------------------------------------------------|
--------------------------------------------------|
--------------------------------------------------|
------------------5-6---------6-5-------------5-6-|
--3-3-3-3-3-3-3-3-----3-3-3-3-----3-3-3-3-2-3-----|
--------------------------------------------------|


  T T T T T T T T S S T T T T S S T T T T S S S S  
--------------------------------------------------|
--------------------------------------------------|
--------------------------------------------------|
------------------7-8---------8-7-------------7-8-|
--5-5-5-5-5-5-5-5-----5-5-5-5-----5-5-5-5-6-5-----|
--------------------------------------------------|


  T T T T T T T T S S T T T T S S T T T T S S S S  
--------------------------------------------------|
--------------------------------------------------|
------------------7-8---------8-7-------------7-8-|
--5-5-5-5-5-5-5-5-----5-5-5-5-----5-5-5-5-4-5-----|
--------------------------------------------------|
--------------------------------------------------|


  T T T T T T T T S  S T T T T  S S T T T T S S S  S  
-----------------------------------------------------|
-----------------------------------------------------|
------------------9-10---------10-9-------------9-10-|
--7-7-7-7-7-7-7-7------7-7-7-7------7-7-7-7-8-7------|
-----------------------------------------------------|
-----------------------------------------------------|


   S E  S E  S S Q      Q        S E  S E  S S Q      Q        S E  S E  S S  
-----------------------------|-----------------------------|-----------------|
-----------------------------|-----------------------------|-----------------|
--10-9--7-9--7-6-7------L----|--10-9--7-9--7-6-9~-----L----|--10-9--7-9--7-6-|
---8-7--5-7--5-4-5~-----L----|---8-7--5-7--5-4-7~-----L----|---8-7--5-7--5-4-|
-----------------------------|-----------------------------|-----------------|
-----------------------------|-----------------------------|-----------------|


                                              PH   PH  
  S T T T T T T S T T T T T T S T T T T T T   E    E   
------------------------------------------------------|
------------------------------------------------------|
-------------------------------------------------<>8--|
--5-5-7-8-7-5-5-5-5-7-8-7-5-5-5-5-7-8-7-5-5-<>7-------|
------------------------------------------------------|
------------------------------------------------------|


                                                 PH   PH  
  S T T  T T T T S T T  T T T T S T T  T T T T   E    E   
---------------------------------------------------------|
---------------------------------------------------------|
----------------------------------------------------<>7--|
--7-7-8-10-8-7-7-7-7-8-10-8-7-7-7-7-8-10-8-7-7-<>8-------|
---------------------------------------------------------|
---------------------------------------------------------|


                                              PH   PH  
  S T T T T T T S T T T T T T S T T T T T T   E    E   
------------------------------------------------------|
------------------------------------------------------|
-------------------------------------------------<>8--|
--5-5-7-8-7-5-5-5-5-7-8-7-5-5-5-5-7-8-7-5-5-<>7-------|
------------------------------------------------------|
------------------------------------------------------|


                                                 PH   PH  
  S T T  T T T T S T T  T T T T S T T  T T T T   E    E   
---------------------------------------------------------|
---------------------------------------------------------|
----------------------------------------------------<>7--|
--7-7-8-10-8-7-7-7-7-8-10-8-7-7-7-7-8-10-8-7-7-<>8-------|
---------------------------------------------------------|
---------------------------------------------------------|


                                              PH   PH  
  S T T T T T T S T T T T T T S T T T T T T   E    E   
------------------------------------------------------|
------------------------------------------------------|
-------------------------------------------------<>8--|
--5-5-7-8-7-5-5-5-5-7-8-7-5-5-5-5-7-8-7-5-5-<>7-------|
------------------------------------------------------|
------------------------------------------------------|


                                                 PH   PH  
  S T T  T T T T S T T  T T T T S T T  T T T T   E    E   
---------------------------------------------------------|
---------------------------------------------------------|
----------------------------------------------------<>7--|
--7-7-8-10-8-7-7-7-7-8-10-8-7-7-7-7-8-10-8-7-7-<>8-------|
---------------------------------------------------------|
---------------------------------------------------------|


                                              PH   PH  
  S T T T T T T S T T T T T T S T T T T T T   E    E   
------------------------------------------------------|
------------------------------------------------------|
-------------------------------------------------<>8--|
--5-5-7-8-7-5-5-5-5-7-8-7-5-5-5-5-7-8-7-5-5-<>7-------|
------------------------------------------------------|
------------------------------------------------------|


                                                 PH   PH  
  S T T  T T T T S T T  T T T T S T T  T T T T   E    E   
---------------------------------------------------------|
---------------------------------------------------------|
----------------------------------------------------<>7--|
--7-7-8-10-8-7-7-7-7-8-10-8-7-7-7-7-8-10-8-7-7-<>8-------|
---------------------------------------------------------|
---------------------------------------------------------|


                                                    ^ v          ^ v      
  T T T T T T T T E  E  T T T T T T S E  E     Q    S S S S Q    S S S S  
--------------------------------------------|---------3------------2-----|
--------------------------------------------|-------3---3--------2---2---|
--------------------------------------------|-------3-----3------2-----2-|
--------------------------------------------|--5----3-------4----2-------|
--6-6-6-6-6-6-6-5-6--5----------------------|--5------------4------------|
------------------------6-6-6-6-6-6-5-6--5--|--3------------2------------|


                                                     ^ v          ^ v      
  T T T T T T T T E  E  T T T T T T S E  E      Q    S S S S Q    S S S S  
--------------------------------------------|----------8------------7-----|
--------------------------------------------|--------8---8--------7---7---|
--------------------------------------------|--------8-----8------7-----7-|
--------------------------------------------|--10----8-------9----7-------|
------------------------6-6-6-6-6-6-5-6--5--|--10------------9------------|
--6-6-6-6-6-6-6-5-6--5----------------------|---8------------7------------|


  S T T T T T T S T T T T T T S T T T T T T E  E   
--------------------------------------------------|
--------------------------------------------------|
--7-------------7-------------7-------------7--7--|
--5-5-5-5-5-0-0-5-5-5-5-5-0-0-5-5-5-5-5-0-0-5--5--|
--------------------------------------------------|
--------------------------------------------------|


  S T T T T T T S T T T T T T  E  E  E  E   
-------------------------------------------|
-------------------------------------------|
--9-------------9-------------10--9--7--6--|
--7-7-7-7-7-0-0-7-7-7-7-7-0-0--8--7--5--4--|
-------------------------------------------|
-------------------------------------------|


  S T T T T T T S T T T T T T S T T T T T T E  E   
--------------------------------------------------|
--------------------------------------------------|
--7-------------7-------------7-------------7--7--|
--5-5-5-5-5-0-0-5-5-5-5-5-0-0-5-5-5-5-5-0-0-5--5--|
--------------------------------------------------|
--------------------------------------------------|


  S T T T T T T S T T T T T T  E  E  E  E   
-------------------------------------------|
-------------------------------------------|
--9-------------9-------------10--9--7--6--|
--7-7-7-7-7-0-0-7-7-7-7-7-0-0--8--7--5--4--|
-------------------------------------------|
-------------------------------------------|


  S T T T T T T S T T T T T T S T T T T T T E  E   
--------------------------------------------------|
--------------------------------------------------|
--7-------------7-------------7-------------7--7--|
--5-5-5-5-5-0-0-5-5-5-5-5-0-0-5-5-5-5-5-0-0-5--5--|
--------------------------------------------------|
--------------------------------------------------|


  S T T T T T T S T T T T T T  E  E  E  E      S E  S E  S S Q      Q     
-------------------------------------------|-----------------------------|
-------------------------------------------|-----------------------------|
--9-------------9-------------10--9--7--6--|--10-9--7-9--7-6-7------L----|
--7-7-7-7-7-0-0-7-7-7-7-7-0-0--8--7--5--4--|---8-7--5-7--5-4-5~-----L----|
-------------------------------------------|-----------------------------|
-------------------------------------------|-----------------------------|


   S E  S E  S S Q      Q        S E  S E  S S  
-----------------------------|-----------------|
-----------------------------|-----------------|
--10-9--7-9--7-6-9~-----L----|--10-9--7-9--7-6-|
---8-7--5-7--5-4-7~-----L----|---8-7--5-7--5-4-|
-----------------------------|-----------------|
-----------------------------|-----------------|


                                              PH   PH  
  S T T T T T T S T T T T T T S T T T T T T   E    E   
------------------------------------------------------|
------------------------------------------------------|
-------------------------------------------------<>8--|
--5-5-7-8-7-5-5-5-5-7-8-7-5-5-5-5-7-8-7-5-5-<>7-------|
------------------------------------------------------|
------------------------------------------------------|


                                                 PH   PH  
  S T T  T T T T S T T  T T T T S T T  T T T T   E    E   
---------------------------------------------------------|
---------------------------------------------------------|
----------------------------------------------------<>7--|
--7-7-8-10-8-7-7-7-7-8-10-8-7-7-7-7-8-10-8-7-7-<>8-------|
---------------------------------------------------------|
---------------------------------------------------------|


                                              PH   PH  
  S T T T T T T S T T T T T T S T T T T T T   E    E   
------------------------------------------------------|
------------------------------------------------------|
-------------------------------------------------<>8--|
--5-5-7-8-7-5-5-5-5-7-8-7-5-5-5-5-7-8-7-5-5-<>7-------|
------------------------------------------------------|
------------------------------------------------------|


                                                 PH   PH  
  S T T  T T T T S T T  T T T T S T T  T T T T   E    E   
---------------------------------------------------------|
---------------------------------------------------------|
----------------------------------------------------<>7--|
--7-7-8-10-8-7-7-7-7-8-10-8-7-7-7-7-8-10-8-7-7-<>8-------|
---------------------------------------------------------|
---------------------------------------------------------|


                                              PH   PH  
  S T T T T T T S T T T T T T S T T T T T T   E    E   
------------------------------------------------------|
------------------------------------------------------|
-------------------------------------------------<>8--|
--5-5-7-8-7-5-5-5-5-7-8-7-5-5-5-5-7-8-7-5-5-<>7-------|
------------------------------------------------------|
------------------------------------------------------|


                                                 PH   PH  
  S T T  T T T T S T T  T T T T S T T  T T T T   E    E   
---------------------------------------------------------|
---------------------------------------------------------|
----------------------------------------------------<>7--|
--7-7-8-10-8-7-7-7-7-8-10-8-7-7-7-7-8-10-8-7-7-<>8-------|
---------------------------------------------------------|
---------------------------------------------------------|


                                              PH   PH  
  S T T T T T T S T T T T T T S T T T T T T   E    E   
------------------------------------------------------|
------------------------------------------------------|
-------------------------------------------------<>8--|
--5-5-7-8-7-5-5-5-5-7-8-7-5-5-5-5-7-8-7-5-5-<>7-------|
------------------------------------------------------|
------------------------------------------------------|


                                                 PH   PH  
  S T T  T T T T S T T  T T T T S T T  T T T T   E    E   
---------------------------------------------------------|
---------------------------------------------------------|
----------------------------------------------------<>7--|
--7-7-8-10-8-7-7-7-7-8-10-8-7-7-7-7-8-10-8-7-7-<>8-------|
---------------------------------------------------------|
---------------------------------------------------------|


                                                    ^ v          ^ v      
  T T T T T T T T E  E  T T T T T T S E  E     Q    S S S S Q    S S S S  
--------------------------------------------|---------3------------2-----|
--------------------------------------------|-------3---3--------2---2---|
--------------------------------------------|-------3-----3------2-----2-|
--------------------------------------------|--5----3-------4----2-------|
--6-6-6-6-6-6-6-5-6--5----------------------|--5------------4------------|
------------------------6-6-6-6-6-6-5-6--5--|--3------------2------------|


                                                     ^ v          ^ v      
  T T T T T T T T E  E  T T T T T T S E  E      Q    S S S S Q    S S S S  
--------------------------------------------|----------8------------7-----|
--------------------------------------------|--------8---8--------7---7---|
--------------------------------------------|--------8-----8------7-----7-|
--------------------------------------------|--10----8-------9----7-------|
------------------------6-6-6-6-6-6-5-6--5--|--10------------9------------|
--6-6-6-6-6-6-6-5-6--5----------------------|---8------------7------------|


  S T T T T T T S T T T T T T S T T T T T T E  E   
--------------------------------------------------|
--------------------------------------------------|
--7-------------7-------------7-------------7--7--|
--5-5-5-5-5-0-0-5-5-5-5-5-0-0-5-5-5-5-5-0-0-5--5--|
--------------------------------------------------|
--------------------------------------------------|


  S T T T T T T S T T T T T T  E  E  E  E   
-------------------------------------------|
-------------------------------------------|
--9-------------9-------------10--9--7--6--|
--7-7-7-7-7-0-0-7-7-7-7-7-0-0--8--7--5--4--|
-------------------------------------------|
-------------------------------------------|


  S T T T T T T S T T T T T T S T T T T T T E  E   
--------------------------------------------------|
--------------------------------------------------|
--7-------------7-------------7-------------7--7--|
--5-5-5-5-5-0-0-5-5-5-5-5-0-0-5-5-5-5-5-0-0-5--5--|
--------------------------------------------------|
--------------------------------------------------|


  S T T T T T T S T T T T T T  E  E  E  E   
-------------------------------------------|
-------------------------------------------|
--9-------------9-------------10--9--7--6--|
--7-7-7-7-7-0-0-7-7-7-7-7-0-0--8--7--5--4--|
-------------------------------------------|
-------------------------------------------|


  S T T T T T T S T T T T T T S T T T T T T E  E   
--------------------------------------------------|
--------------------------------------------------|
--7-------------7-------------7-------------7--7--|
--5-5-5-5-5-0-0-5-5-5-5-5-0-0-5-5-5-5-5-0-0-5--5--|
--------------------------------------------------|
--------------------------------------------------|


  S T T T T T T S T T T T T T  E  E  E  E     Q    Q    Q    Q     
-------------------------------------------|----------------------|
-------------------------------------------|----------------------|
--9-------------9-------------10--9--7--6--|--3----2--------------|
--7-7-7-7-7-0-0-7-7-7-7-7-0-0--8--7--5--4--|--1----0----3----2----|
-------------------------------------------|------------1----0----|
-------------------------------------------|----------------------|


  S S S S S S S S S S S S S S S S    S S S S S S S S S S S S S S S S  
----------------------------------|----------------------------------|
----------------------------------|----------------------------------|
--3-------2-----------------------|----------------------------------|
--1-0-0-0-0-0-0-0-0-7-8-0-5-7-3-2-|--3-------2-----------------------|
----------------------------------|--1-0-0-0-0-0-0-0-0-7-8-0-5-7-3-2-|
----------------------------------|----------------------------------|


  S S S S S S S S S S S S S S S S    S S S S S S S S S S S S S S S S  
----------------------------------|----------------------------------|
----------------------------------|----------------------------------|
--3-------2-----------------------|----------------------------------|
--1-0-0-0-0-0-0-0-0-7-8-0-5-7-3-2-|--3-------2-----------------------|
----------------------------------|--1-0-0-0-0-0-0-0-0-7-8-0-5-7-3-2-|
----------------------------------|----------------------------------|


  Q    Q    Q    E  E     Q    Q    Q    E  E     Q    Q    Q    E  E   
-----------------------|-----------------------|-----------------------|
-----------------------|-----------------------|-----------------------|
-----------------------|-----------------------|-----------------------|
-----------------------|-----------------------|-----------------------|
-----------------7--8--|-----------------8--7--|-----------------7--8--|
-----------------5--6--|-----------------6--5--|-----------------5--6--|


  Q    Q    Q    E  E     Q.     T T T T Q.     T T T T  
-----------------------|--------------------------------|
-----------------------|--------------------------------|
-----------------------|-----------------7--------------|
-----------------------|--5------7-8-7-8--------7-8-7-8-|
-----------------8--7--|--------------------------------|
-----------------6--5--|--------------------------------|


  Q.     T T T T Q    T T T T T T T T    Q.     T T T T Q.     T T T T  
--------------------------------------|--------------------------------|
--------------------------------------|--------------------------------|
--6--------------5----6-7-6-7---------|-----------------7--------------|
---------7-8-7-8--------------7-8-7-8-|--5------7-8-7-8--------7-8-7-8-|
--------------------------------------|--------------------------------|
--------------------------------------|--------------------------------|


  Q.     T T T T Q    T T T T T T T T  
--------------------------------------|
--------------------------------------|
--6--------------5----6-7-6-7---------|
---------7-8-7-8--------------7-8-7-8-|
--------------------------------------|
--------------------------------------|


  S T T T T T T T T T T T T T T T T T T T T T T T T T T T T T T  
----------------------------------------------------------------|
----------------------------------------------------------------|
----------------------------------------------------------------|
----------------------------------------------------------------|
--5-------------------------------------------------------------|
--3-3-3-3-3-3-3-3-3-3-3-3-3-3-3-2-2-2-2-2-2-2-2-3-3-3-3-3-3-3-3-|


  S T T T T T T T T T T T T T T T T T T T T T T T T T T T T T T  
----------------------------------------------------------------|
----------------------------------------------------------------|
----------------------------------------------------------------|
----------------------------------------------------------------|
--4-------------------------------------------------------------|
--2-2-2-2-2-2-2-2-2-2-2-2-2-2-2-6-6-6-6-6-6-6-6-5-5-5-5-5-5-5-5-|


  S T T T T T T T T T T T T T T T T T T T T T T T T T T T T T T  
----------------------------------------------------------------|
----------------------------------------------------------------|
----------------------------------------------------------------|
----------------------------------------------------------------|
--5-------------------------------------------------------------|
--3-3-3-3-3-3-3-3-3-3-3-3-3-3-3-2-2-2-2-2-2-2-2-3-3-3-3-3-3-3-3-|


  S T T T T T T T T T T T T T T T T T T T T T T T T T T T T T T  
----------------------------------------------------------------|
----------------------------------------------------------------|
----------------------------------------------------------------|
----------------------------------------------------------------|
--4-------------------------------------------------------------|
--2-2-2-2-2-2-2-2-2-2-2-2-2-2-2-6-6-6-6-6-6-6-6-5-5-5-5-5-5-5-5-|


  S T T T T T T T T T T T T T T T T T T T T T T T T T T T T T T  
----------------------------------------------------------------|
----------------------------------------------------------------|
----------------------------------------------------------------|
----------------------------------------------------------------|
--5-------------------------------------------------------------|
--3-3-3-3-3-3-3-3-3-3-3-3-3-3-3-2-2-2-2-2-2-2-2-3-3-3-3-3-3-3-3-|


  S T T T T T T T T T T T T T T T T T T T T T T T T T T T T T T  
----------------------------------------------------------------|
----------------------------------------------------------------|
----------------------------------------------------------------|
----------------------------------------------------------------|
--4-------------------------------------------------------------|
--2-2-2-2-2-2-2-2-2-2-2-2-2-2-2-6-6-6-6-6-6-6-6-5-5-5-5-5-5-5-5-|


  S T T T T T T T T T T T T T T T T T T T T T T T T T T T T T T  
----------------------------------------------------------------|
----------------------------------------------------------------|
----------------------------------------------------------------|
----------------------------------------------------------------|
--5-------------------------------------------------------------|
--3-3-3-3-3-3-3-3-3-3-3-3-3-3-3-2-2-2-2-2-2-2-2-3-3-3-3-3-3-3-3-|


  S T T T T T T T T T T T T T T T T T T T T T T T T T T T T T T  
----------------------------------------------------------------|
----------------------------------------------------------------|
----------------------------------------------------------------|
----------------------------------------------------------------|
--4-------------------------------------------------------------|
--2-2-2-2-2-2-2-2-2-2-2-2-2-2-2-6-6-6-6-6-6-6-6-5-5-5-5-5-5-5-5-|


  Q.     T T T T Q.     T T T T    Q.     T T T T Q    T T T T T T T T  
--------------------------------|--------------------------------------|
--------------------------------|--------------------------------------|
-----------------7--------------|--6--------------5----6-7-6-7---------|
--5------7-8-7-8--------7-8-7-8-|---------7-8-7-8--------------7-8-7-8-|
--------------------------------|--------------------------------------|
--------------------------------|--------------------------------------|


  Q.     T T T T Q.     T T T T    Q.     T T T T Q    T T T T T T T T  
--------------------------------|--------------------------------------|
--------------------------------|--------------------------------------|
-----------------7--------------|--6--------------5----6-7-6-7---------|
--5------7-8-7-8--------7-8-7-8-|---------7-8-7-8--------------7-8-7-8-|
--------------------------------|--------------------------------------|
--------------------------------|--------------------------------------|


  T T T T T T T T T T T T T T T T T T T T T T T T T T T T T T T T  
------------------------------------------------------------------|
------------------------------------------------------------------|
------------------------------------------------------------------|
--5-5-5-5-5-5-5-5-5-5-5-5-5-5-5-5---------------------------------|
--------------------------------------------------6-6-6-6-6-6-6-6-|
----------------------------------5-5-5-5-5-5-5-5-----------------|


  T T T T T T T T T T T T T T T T T T T T T T T T T T T T T T T T  
------------------------------------------------------------------|
------------------------------------------------------------------|
------------------------------------------------------------------|
--4-4-4-4-4-4-4-4-4-4-4-4-4-4-4-4---------------------------------|
--------------------------------------------------5-5-5-5-5-5-5-5-|
----------------------------------6-6-6-6-6-6-6-6-----------------|


  T T T T T T T T T T T T T T T T T T T T T T T T T T T T T T T T  
------------------------------------------------------------------|
------------------------------------------------------------------|
------------------------------------------------------------------|
--5-5-5-5-5-5-5-5-5-5-5-5-5-5-5-5---------------------------------|
--------------------------------------------------6-6-6-6-6-6-6-6-|
----------------------------------5-5-5-5-5-5-5-5-----------------|


  T T T T T T T T T T T T T T T T T T T T T T T T T T T T T T T T  
------------------------------------------------------------------|
------------------------------------------------------------------|
------------------------------------------------------------------|
--4-4-4-4-4-4-4-4-4-4-4-4-4-4-4-4---------------------------------|
--------------------------------------------------5-5-5-5-5-5-5-5-|
----------------------------------6-6-6-6-6-6-6-6-----------------|


  T T T T T T T T T T T T T T T T T T T T T T T T T T T T T T T T  
------------------------------------------------------------------|
------------------------------------------------------------------|
------------------------------------------------------------------|
--5-5-5-5-5-5-5-5-5-5-5-5-5-5-5-5---------------------------------|
--------------------------------------------------6-6-6-6-6-6-6-6-|
----------------------------------5-5-5-5-5-5-5-5-----------------|


  T T T T T T T T T T T T T T T T T T T T T T T T T T T T T T T T  
------------------------------------------------------------------|
------------------------------------------------------------------|
------------------------------------------------------------------|
--4-4-4-4-4-4-4-4-4-4-4-4-4-4-4-4---------------------------------|
--------------------------------------------------5-5-5-5-5-5-5-5-|
----------------------------------6-6-6-6-6-6-6-6-----------------|


  T T T T T T T T T T T T T T T T T T T T T T T T T T T T T T T T  
------------------------------------------------------------------|
------------------------------------------------------------------|
------------------------------------------------------------------|
--5-5-5-5-5-5-5-5-5-5-5-5-5-5-5-5---------------------------------|
--------------------------------------------------6-6-6-6-6-6-6-6-|
----------------------------------5-5-5-5-5-5-5-5-----------------|


  T T T T T T T T T T T T T T T T T T T T T T T T T T T T T T T T  
------------------------------------------------------------------|
------------------------------------------------------------------|
------------------------------------------------------------------|
--4-4-4-4-4-4-4-4-4-4-4-4-4-4-4-4---------------------------------|
--------------------------------------------------5-5-5-5-5-5-5-5-|
----------------------------------6-6-6-6-6-6-6-6-----------------|


  H        Q     Q        H        Q     Q      
-----------------------|-----------------------|
-----------------------|-----------------------|
--7--------------------|--6--------------------|
--5--------------------|--4--------------------|
-----------------6~----|-----------------5~----|
-----------5~----------|-----------6~----------|


    PM PM PM   PM PM PM PM PM PM PM PM PM PM PM  
  S S  S  S  S S  S  S  S  S  S  S  S  S  S  S   
------------------------------------------------|
------------------------------------------------|
--7----------7----------------------------------|
--5-5--5--5--5-5--5--5--------------------------|
------------------------------------6--6--6--6--|
------------------------5--5--5--5--------------|


    PM PM PM   PM PM PM PM PM PM PM PM PM PM PM  
  S S  S  S  S S  S  S  S  S  S  S  S  S  S  S   
------------------------------------------------|
------------------------------------------------|
--6----------6----------------------------------|
--4-4--4--4--4-4--4--4--------------------------|
------------------------------------5--5--5--5--|
------------------------6--6--6--6--------------|


  T T T T T T T T T T T T T T T T T T T T T T T T T T T T T T T T  
------------------------------------------------------------------|
------------------------------------------------------------------|
------------------------------------------------------------------|
--5-5-5-5-5-5-5-5-5-5-5-5-5-5-5-5---------------------------------|
--------------------------------------------------6-6-6-6-6-6-6-6-|
----------------------------------5-5-5-5-5-5-5-5-----------------|


  T T T T T T T T T T T T T T T T T T T T T T T T T T T T T T T T  
------------------------------------------------------------------|
------------------------------------------------------------------|
------------------------------------------------------------------|
--4-4-4-4-4-4-4-4-4-4-4-4-4-4-4-4---------------------------------|
--------------------------------------------------5-5-5-5-5-5-5-5-|
----------------------------------6-6-6-6-6-6-6-6-----------------|


  T T T T T T T T T T T T T T T T T T T T T T T T T T T T T T T T  
------------------------------------------------------------------|
------------------------------------------------------------------|
------------------------------------------------------------------|
--5-5-5-5-5-5-5-5-5-5-5-5-5-5-5-5---------------------------------|
--------------------------------------------------6-6-6-6-6-6-6-6-|
----------------------------------5-5-5-5-5-5-5-5-----------------|


  T T T T T T T T T T T T T T T T T T T T T T T T T T T T T T T T  
------------------------------------------------------------------|
------------------------------------------------------------------|
------------------------------------------------------------------|
--4-4-4-4-4-4-4-4-4-4-4-4-4-4-4-4---------------------------------|
--------------------------------------------------5-5-5-5-5-5-5-5-|
----------------------------------6-6-6-6-6-6-6-6-----------------|


  T T T T T T T T T T T T T T T T T T T T T T T T T T T T T T T T  
------------------------------------------------------------------|
------------------------------------------------------------------|
------------------------------------------------------------------|
--5-5-5-5-5-5-5-5-5-5-5-5-5-5-5-5---------------------------------|
--------------------------------------------------6-6-6-6-6-6-6-6-|
----------------------------------5-5-5-5-5-5-5-5-----------------|


  T T T T T T T T T T T T T T T T T T T T T T T T T T T T T T T T  
------------------------------------------------------------------|
------------------------------------------------------------------|
------------------------------------------------------------------|
--4-4-4-4-4-4-4-4-4-4-4-4-4-4-4-4---------------------------------|
--------------------------------------------------5-5-5-5-5-5-5-5-|
----------------------------------6-6-6-6-6-6-6-6-----------------|


  T T T T T T T T T T T T T T T T T T T T T T T T T T T T T T T T  
------------------------------------------------------------------|
------------------------------------------------------------------|
------------------------------------------------------------------|
--5-5-5-5-5-5-5-5-5-5-5-5-5-5-5-5---------------------------------|
--------------------------------------------------6-6-6-6-6-6-6-6-|
----------------------------------5-5-5-5-5-5-5-5-----------------|


  T T T T T T T T T T T T T T T T T T T T T T T T T T T T T T T T  
------------------------------------------------------------------|
------------------------------------------------------------------|
------------------------------------------------------------------|
--4-4-4-4-4-4-4-4-4-4-4-4-4-4-4-4---------------------------------|
--------------------------------------------------5-5-5-5-5-5-5-5-|
----------------------------------6-6-6-6-6-6-6-6-----------------|


  H        Q     Q        H        Q     Q      
-----------------------|-----------------------|
-----------------------|-----------------------|
--7--------------------|--6--------------------|
--5--------------------|--4--------------------|
-----------------6~----|-----------------5~----|
-----------5~----------|-----------6~----------|


    PM PM PM   PM PM PM PM PM PM PM PM PM PM PM  
  S S  S  S  S S  S  S  S  S  S  S  S  S  S  S   
------------------------------------------------|
------------------------------------------------|
--7----------7----------------------------------|
--5-5--5--5--5-5--5--5--------------------------|
------------------------------------6--6--6--6--|
------------------------5--5--5--5--------------|


    PM PM PM   PM PM PM PM PM PM PM PM PM PM PM  
  S S  S  S  S S  S  S  S  S  S  S  S  S  S  S   
------------------------------------------------|
------------------------------------------------|
--6----------6----------------------------------|
--4-4--4--4--4-4--4--4--------------------------|
------------------------------------5--5--5--5--|
------------------------6--6--6--6--------------|


  S T T T T T T S T T T T T T S T T T T T T E  E   
--------------------------------------------------|
--------------------------------------------------|
--7-------------7-------------7-------------7--7--|
--5-5-5-5-5-0-0-5-5-5-5-5-0-0-5-5-5-5-5-0-0-5--5--|
--------------------------------------------------|
--------------------------------------------------|


  S T T T T T T S T T T T T T  E  E  E  E   
-------------------------------------------|
-------------------------------------------|
--9-------------9-------------10--9--7--6--|
--7-7-7-7-7-0-0-7-7-7-7-7-0-0--8--7--5--4--|
-------------------------------------------|
-------------------------------------------|


  S T T T T T T S T T T T T T S T T T T T T E  E   
--------------------------------------------------|
--------------------------------------------------|
--7-------------7-------------7-------------7--7--|
--5-5-5-5-5-0-0-5-5-5-5-5-0-0-5-5-5-5-5-0-0-5--5--|
--------------------------------------------------|
--------------------------------------------------|


  S T T T T T T S T T T T T T  E  E  E  E   
-------------------------------------------|
-------------------------------------------|
--9-------------9-------------10--9--7--6--|
--7-7-7-7-7-0-0-7-7-7-7-7-0-0--8--7--5--4--|
-------------------------------------------|
-------------------------------------------|


  S T T T T T T S T T T T T T S T T T T T T E  E   
--------------------------------------------------|
--------------------------------------------------|
--7-------------7-------------7-------------7--7--|
--5-5-5-5-5-0-0-5-5-5-5-5-0-0-5-5-5-5-5-0-0-5--5--|
--------------------------------------------------|
--------------------------------------------------|


  S T T T T T T S T T T T T T  E  E  E  E     Q    H.            
-------------------------------------------|--------------------|
-------------------------------------------|--------------------|
--9-------------9-------------10--9--7--6--|--7-----------------|
--7-7-7-7-7-0-0-7-7-7-7-7-0-0--8--7--5--4--|--5-----------------|
-------------------------------------------|--------------------|
-------------------------------------------|--------------------|


---------------||
---------------||
---------------||
---------------||
---------------||
---------------||




Duration Legend
---------------
W - whole
H - half
Q - quarter
E - 8th
S - 16th
T - 32nd
X - 64th
. - note dotted
|-n-|  - n-tuplets


Tablature Legend
----------------
L - tied note
x - dead note
g - grace note
(n) - ghost note
> - accentuded note
NH - natural harmonic
AH - artificial harmonic
TH - tapped harmonic
SH - semi harmonic
PH - pitch harmonic
h - hammer on
p - pull off
b - bend
br - bendRelease
pb - preBend
pbr - preBendRelease
brb - bendReleaseBend
\n/ - tremolo bar dip
\n - tremolo bar dive
-/n - tremolo bar Release up
/n\ - tremolo bar inverted dip
/n - tremolo bar return
-\n - tremolo bar Release down
S - shift slide
s - legato slide
/ -  slide into from below or out of upwards
\ -  slide into from above or out of downwards
~ - vibrato
W - wide vibrato
tr - trill
TP - tremolo picking
T - tapping
S - slap
P - pop
< - fade in
^ - brush up
v - brush down
comments
We did not receive enough feedback on this tab! Please rate:
print report bad tab
1 2 3 4 5
I want to post or [tab]
guest
You may want to rate the tab now too:
select rating
Please do not post tabs as comments. Select "correction" instead!