Oops, an error
Loading. Please wait.

Hallucigenia Tab

245 views 1 this week
no commentswrite comment
1 2 3 4 5
poor
x 1
Autoscroll
+/-
esc
set tempo
stop
Contributor
Tuning
Tabbers playing skills
B E A D F# B
intermediate ++
WARNING: You are trying to view
                                    content from Ultimate-Guitar.com
                                    in an unauthorized application,
                                    which is prohibited.

                                    Please use an official Ultimate
                                    Guitar Tabs application for iPhone,
                                    iPad or Android to access legitimate
                                    chords, guitar, bass, and drum tabs
                                    from Ultimate-Guitar.com database.

                                    Type "ultimate guitar tabs" in Apple
                                    App Store's or Android Market's
                                    search to find the application.
                     HALLUCIGENIA
                            As recorded by Dismember
                 (From the 1995 Album MASSIVE KILLING CAPACITY)


Tablature Legend
----------------
 h   - hammer-on
 p   - pull-off
 b   - bend
 pb  - pre-bend
 r   - bend release (if no number after the r, then release immediately)
 /\  - slide into or out of (from/to "nowhere")
 s   - legato slide
 S   - shift slide
  - natural harmonic
[n]  - artificial harmonic
n(n) - tapped harmonic
 ~   - vibrato
 tr  - trill
 T   - tap
 TP  - trem. picking
 PM  - palm muting
\n/  - tremolo bar dip; n = amount to dip
 \n  - tremolo bar down
 n/  - tremolo bar up
/n\  - tremolo bar inverted dip
 =   - hold bend; also acts as connecting device for hammers/pulls
 <>  - volume swell (louder/softer)
 x   - on rhythm slash represents muted slash
 o   - on rhythm slash represents single note slash

 Intro (0:00)
  Q=130
 4/4
  Gtr I                          Gtrs I, II
|-----------------|------------|-----------------|-------------------|
|-----------------|------------|-----------------|-------------------|
|-----------------|------------|-----------------|-------------------|
|-2h3p2-----------|------------|-2h3p2-----------|-------2-3-5-6-5---|
|-------3-4-3-1-3-|-(3)--------|-------3-4-3-1-3-|-(3)-3-------------|
|-----------------|------------|-----------------|-------------------|


   4/4
||------------------|------------|-----------------|-------------------||
||o-----------------|------------|-----------------|------------------o||
||------------------|------------|-----------------|-----------0-1-0---||
||--2h3p2-----------|------------|-2h3p2-----------|-------2-3---------||
||o-------3-4-3-1-3-|-(3)--------|-------3-4-3-1-3-|-(3)-3------------o||
||------------------|------------|-----------------|-------------------||


   Pre-Chorus (0:22)
    Gtrs I, II
||--------------|-----------------------|
||o-------------|-----------------------|
||--------------|-----------------------|
||--3----2----2-|-(2)---2-3-5-(5)b6r(5)-|
||o---------4---|-----4-----------------|
||--------------|-----------------------|


|-------------|------------------------||
|-------------|-----------------------o||
|-------------|------------------------||
|-3----2----2-|-(2)--------------------||
|---------4---|-----4-3-1-3-(3)b4r(3)-o||
|-------------|------------------------||


   Chorus Riff (0:36)
                                          4x
||-------------------|--------------------||
||o------------------|-------------------o||
||-----------------6-|-6--6-3-3-5-5-(5)\--||
||--3--3-2-(2)-2-2-6-|-6--6-3-3-5-5-(5)\--||
||o-3--3-2-(2)-2-2-4-|-4--4-----3-3-(3)\-o||
||--1--1-0-(0)-0-0---|--------------------||


   Verse 1 (0:50)
       PM--|   PM           PM
                                      8x
||-----------------|------------------||
||o----------------|-----------------o||
||-----------5---4-|-(4)------4-5-4---||
||--3--------5---4-|-(4)-4----4-5-4---||
||o-3--------3-3-2-|-(2)-4----2-3-2--o||
||--1--1-1-1-------|-----2--2---------||


 Interlude (1:18)
  Gtrs I, II
|--------------|-------------------|--------------|--------------------|
|--------------|-------------------|--------------|--------------------|
|--------------|-------------------|--------------|--------------------|
|----3--2----2-|-(2)----2-(2)-3-5--|----3--2----2-|-(2)----2-(2)-------|
|-1--------4---|-----4-------------|-1--------4---|-----4--------4-3---|
|--------------|-------------------|--------------|--------------------|


  Gtr I
|--------------|-------------------|-----------------|--------------------|
|--------------|-------------------|-----------------|--------------------|
|--------------|-------------------|-----------------|--------------------|
|----3--2----2-|-(2)----2-(2)-3-5--|----3--2-------2-|-(2)----2-(2)-------|
|-1--------4---|-----4-------------|-1-----------4---|-----4--------4-3---|
|--------------|-------------------|-----------------|--------------------|
|
| Gtr II
|--------------|----------------3--|-----------------|--------------------|
|----6--5----5-|-(5)----5-(5)-6----|----6--5tr6----5-|-(5)----5-(5)-------|
|-3--------6---|-----6-------------|-3-----------6---|-----6--------6-5---|
|--------------|-------------------|-----------------|--------------------|
|--------------|-------------------|-----------------|--------------------|
|--------------|-------------------|-----------------|--------------------|


   Verse 2 (1:32)
    Gtrs I, II
       PM--|   PM           PM
                                      4x
||-----------------|------------------||
||o----------------|-----------------o||
||-----------5---4-|-(4)------4-5-4---||
||--3--------5---4-|-(4)-4----4-5-4---||
||o-3--------3-3-2-|-(2)-4----2-3-2--o||
||--1--1-1-1-------|-----2--2---------||


 Interlude (1:47)
  Gtrs I, II
|--------------|-------------------|--------------|--------------------|
|--------------|-------------------|--------------|--------------------|
|--------------|-------------------|--------------|--------------------|
|----3--2----2-|-(2)----2-(2)-3-5--|----3--2----2-|-(2)----2-(2)-------|
|-1--------4---|-----4-------------|-1--------4---|-----4--------4-3---|
|--------------|-------------------|--------------|--------------------|


  Gtr I
|--------------|-------------------|-----------------|--------------------|
|--------------|-------------------|-----------------|--------------------|
|--------------|-------------------|-----------------|--------------------|
|----3--2----2-|-(2)----2-(2)-3-5--|----3--2-------2-|-(2)----2-(2)-------|
|-1--------4---|-----4-------------|-1-----------4---|-----4--------4-3---|
|--------------|-------------------|-----------------|--------------------|
|
| Gtr II
|--------------|-------------------|-----------------|--------------------|
|----6--5----5-|-(5)----5-(5)-6-8--|----6--5tr5----5-|-(5)----5-(5)-------|
|-3--------6---|-----6-------------|-3-----------6---|-----6--------6-5---|
|--------------|-------------------|-----------------|--------------------|
|--------------|-------------------|-----------------|--------------------|
|--------------|-------------------|-----------------|--------------------|


   Chorus (1:59)
    Gtrs I, II
||-------------------|--------------------||
||o------------------|-------------------o||
||-----------------6-|-6--6-3-3-5-5-(5)\--||
||--3--3-2-(2)-2-2-6-|-6--6-3-3-5-5-(5)\--||
||o-3--3-2-(2)-2-2-4-|-4--4-----3-3-(3)\-o||
||--1--1-0-(0)-0-0---|--------------------||


 Pre-Solo (2:13)
  Q.=130
 6/8
  Gtr I
  PM-|
|------------|--------------|--------------|-------------|------------|
|------------|--------------|--------------|-------------|------------|
|------------|--------5h6p5-|--4---4-------|-------------|------------|
|------3h4p3-|-(3)--3-------|--------4h5p4-|--3---3----3-|-(3)--3-----|
|------------|--------------|--------------|--------2----|--------2---|
|-1--1-------|--------------|--------------|-------------|------------|
|
| Gtr II
|------------|--------------|--------------|-------------|------------|
|------------|--------------|--------------|-------------|------------|
|------------|--------------|--------------|-------------|------------|
|-3----------|-(3)----------|-(3)----------|-(3)---------|-(3)--------|
|-3----------|-(3)----------|-(3)----------|-(3)---------|-(3)--------|
|-1----------|-(1)----------|-(1)----------|-(1)---------|-(1)--------|


  PM-|
|-------------|--------------|------------|-----------|------------|
|-------------|--------------|------------|-----------|------------|
|-------------|--------5h6p5-|-4--4-------|-----------|------------|
|-------3h4p3-|-(3)--3-------|------4h5p4-|-3--3----3-|-(3)--3-----|
|-------------|--------------|------------|------2----|--------2---|
|-1--1--------|--------------|------------|-----------|------------|
|
| PM    T
|------13p==8-|-(8)----------|------------|-----------|------------|
|-------------|--------------|------------|-----------|------------|
|-------------|--------------|------------|-----------|------------|
|-3-----------|--------------|------------|-----------|------------|
|-3-----------|--------------|------------|-----------|------------|
|-1-----------|--------------|------------|-----------|------------|


    PM-|
||----------------|-------------------|
||o---------------|-------------------|
||----------------|-----------5h=6p=5-|
||--------3h=4p=3-|--(3)---3----------|
||o---------------|-------------------|
||--1--1----------|-------------------|
|
|   PM-|
||----------------|-------------------|
||o---------------|-------------------|
||----------------|----------17h18p17-|
||-------15h16p15-|-(15)--15----------|
||o---------------|-------------------|
||--1--1----------|-------------------|


|-----------------|---------------|-----------------||
|-----------------|---------------|----------------o||
|--4---4----------|---------------|-----------------||
|---------4h=5p=4-|--3---3------3-|--(3)---3--------||
|-----------------|---------2-----|-----------2----o||
|-----------------|---------------|-----------------||
|
|-----------------|---------------|-----------------||
|-----------------|---------------|----------------o||
|-16--16----------|---------------|-----------------||
|--------16h17p16-|-15--15-----15-|-(15)--15--------||
|-----------------|--------14-----|----------14----o||
|-----------------|---------------|-----------------||


 Guitar Solo (2:32)
  Gtr II
   PM--|
|--------------|------------------|
|--------------|------------------|
|--------------|---------5h===6p5-|
|--------3h4p3-|-(3)--3-----------|
|--------------|------------------|
|--1-1-1-------|------------------|
|
| Gtr I
|--------------|------------------|
|-/6-----9p8-6-|-(6)--6-11b13---9-|
|------5-------|------------------|
|--------------|------------------|
|--------------|------------------|
|--------------|------------------|


|---------------|-------------|---------------|
|---------------|-------------|---------------|
|--4---4--------|-------------|---------------|
|---------4h5p4-|-3---3-----3-|-(3)----3------|
|---------------|-------2-----|-----------2---|
|---------------|-------------|---------------|
|
|--------11-9-8-|-9-8-6-8-6---|--6------------|
|-(9)--9--------|-----------9-|-----9---------|
|---------------|-------------|-------12-10---|
|---------------|-------------|---------------|
|---------------|-------------|---------------|
|---------------|-------------|---------------|


   PM-|
|-------------------|------------------|--------------------------------|
|-------------------|------------------|--------------------------------|
|-------------------|------------5h6p5-|-4-------------4----------------|
|---------3h===4p=3-|--(3)--3----------|-----------------4h===5p=4------|
|-------------------|------------------|--------------------------------|
|--1---1------------|------------------|--------------------------------|
|
|--------11b13---11-|-(11)--9h11-9---8-|-9b11==(9)r(9)p8-8b9====(8)r(8)-|
|-------------------|------------------|--------------------------------|
|-10--10------------|------------------|--------------------------------|
|-------------------|------------------|--------------------------------|
|-------------------|------------------|--------------------------------|
|-------------------|------------------|--------------------------------|


|--------------------|---------------------------|
|--------------------|---------------------------|
|--------------------|---------------------------|
|-3--3-------------3-|-(3)---3-------------------|
|------2-------------|----------2----------------|
|--------------------|---------------------------|
|
|--------------------|------13h16p15h16-13h16p15-|
|-9----9h11p9-(9)\---|---------------------------|
|--------------------|---------------------------|
|--------------------|---------------------------|
|--------------------|---------------------------|
|--------------------|---------------------------|


   PM------|
|-------------------------------|-------------------------------|
|-------------------------------|-------------------------------|
|-------------------------------|-----------------5h====6p=5----|
|-----------------3h====4p=3----|-(3)-------3-------------------|
|-------------------------------|-------------------------------|
|--1-----1--1-------------------|-------------------------------|
|
|-13h16p15h16-13h16p15-13h16p15-|-13h16p15h16-13h16p15-13h16p15-|
|-------------------------------|-------------------------------|
|-------------------------------|-------------------------------|
|-------------------------------|-------------------------------|
|-------------------------------|-------------------------------|
|-------------------------------|-------------------------------|


|-----------------------------|--------------------------|----------------|
|-----------------------------|--------------------------|----------------|
|--4-----------4--------------|--------------------------|----------------|
|-----------------4h=5p=4-----|---3-----3----------3-----|-(3)------3-----|
|-----------------------------|-------------2------------|------------2---|
|-----------------------------|--------------------------|----------------|
|
|-13b15==(13)r15-13-15-11b13==|=(11)r=(11)-11tr13--9tr11-|-(9tr11)--------|
|-----------------------------|--------------------------|------------9---|
|-----------------------------|--------------------------|----------------|
|-----------------------------|--------------------------|----------------|
|-----------------------------|--------------------------|----------------|
|-----------------------------|--------------------------|----------------|


   PM----------|
|-------------------------------|-----------------------|
|-------------------------------|-----------------------|
|-------------------------------|----------------5h6p=5-|
|---------------------3h===4p=3-|--(3)-----3------------|
|-------------------------------|-----------------------|
|--1------------1---------------|-----------------------|
|
|-11b13==(11)r-11b13-18b20---18-|-(18)-16h18p16-15---16-|
|-------------------------------|-----------------------|
|-------------------------------|-----------------------|
|-------------------------------|-----------------------|
|-------------------------------|-----------------------|
|-------------------------------|-----------------------|


|----------------------|---------------|-----------------------|
|----------------------|---------------|-----------------------|
|--4-------4-----------|---------------|-----------------------|
|----------------4h5p4-|--3-----3----3-|-(3)---------3---------|
|----------------------|----------2----|-----------------2-----|
|----------------------|---------------|-----------------------|
|
|-16tr15--13tr11-------|-11tr8---------|-11b13==(11)---(11)----|
|----------------------|---------------|-----------------------|
|----------------------|---------------|-----------------------|
|----------------------|---------------|-----------------------|
|----------------------|---------------|-----------------------|
|----------------------|---------------|-----------------------|


 Verse 4 (2:51)
  Q=130
 4/4
  Gtr II
            PM--|   PM           PM            PM--|   PM           PM
|-----------------------|-----------------|----------------|------------------|
|-----------------------|-----------------|----------------|------------------|
|-----------------5---4-|-(4)------4-5-4--|----------5---4-|-(4)------4-5-x---|
|---3-------------5---4-|-(4)-4----4-5-4--|-3--------5---4-|-(4)-4----4-5-x---|
|---3-------------3-3-2-|-(2)-4----2-3-2--|-3--------3-3-2-|-(2)-4----2-3-x---|
|---1-------1-1-1-------|-----2--2--------|-1--1-1-1-------|-----2--2---------|
|
| Gtr I
|-(11)-(11)r============|=================|================|==================|
|-----------------------|-----------------|----------------|------------------|
|-----------------------|-----------------|----------------|------------------|
|-----------------------|-----------------|----------------|------------------|
|-----------------------|-----------------|----------------|------------------|
|-----------------------|-----------------|----------------|------------------|


    Gtrs I, II
       PM--|   PM           PM
                                      4x
||-----------------|------------------||
||o----------------|-----------------o||
||-----------5---4-|-(4)------4-5-4---||
||--3--------5---4-|-(4)-4----4-5-4---||
||o-3--------3-3-2-|-(2)-4----2-3-2--o||
||--1--1-1-1-------|-----2--2---------||


   Pre-Chorus (3:11)
||---------------|-----------------------|--------------|--------------------||
||o--------------|-----------------------|--------------|-------------------o||
||---------------|-----------------------|--------------|--------------------||
||-----3--2----2-|-(2)---2-3-5-(5)b6r(5)-|----3--2----2-|-(2)----------------||
||o-1--------4---|-----4-----------------|-1--------4---|-----4-3-1-3-4-3---o||
||---------------|-----------------------|--------------|--------------------||


   Chorus (3:25)
                                          4x
||-------------------|--------------------||
||o------------------|-------------------o||
||-----------------6-|-6--6-3-3-5-5-(5)\--||
||--3--3-2-(2)-2-2-6-|-6--6-3-3-5-5-(5)\--||
||o-3--3-2-(2)-2-2-4-|-4--4-----3-3-(3)\-o||
||--1--1-0-(0)-0-0---|--------------------||


   Outro (3:39)
   4/4                                  2/4
                                               4x
||-----------|------------|------------|-------||
||o----------|------------|------------|------o||
||-----------|------------|------------|-------||
||--3--------|-(3)--------|-(3)--------|-3-----||
||o-3--------|-(3)--------|-(3)--------|-3----o||
||--1--------|-(1)--------|-(1)--------|-1-----||
comments
We did not receive enough feedback on this tab! Please rate:
print report bad tab
1 2 3 4 5
I want to post or [tab]
guest
You may want to rate the tab now too:
select rating
Please do not post tabs as comments. Select "correction" instead!