Oops, an error
Loading. Please wait.

Another Way To Die Tab

ver2
ver2

Whole song

More versions @911Tabs.com
11,182 views 1 this week
3 commentsread comments
1 2 3 4 5
excellent!
x 3
Autoscroll
+/-
esc
set tempo
stop
Contributor
Difficulty
Tuning
intermediate
C# G# C# F# A# D#
WARNING: You are trying to view
                                    content from Ultimate-Guitar.com
                                    in an unauthorized application,
                                    which is prohibited.

                                    Please use an official Ultimate
                                    Guitar Tabs application for iPhone,
                                    iPad or Android to access legitimate
                                    chords, guitar, bass, and drum tabs
                                    from Ultimate-Guitar.com database.

                                    Type "ultimate guitar tabs" in Apple
                                    App Store's or Android Market's
                                    search to find the application.
Another Way To Die
Disturbed
Asylum (2010)

Another Way To Die:  written by David Draiman, Dan Donegan, John Moyer, and 
Mike Wengren

NOTE:  If you listen closely to the main riff, it is a picked, not hammer-
ons and pull-offs.
NOTE:  I do not know the entire solo, and what I have is sketchy at best, but
I am confident that the rest of what I have for this song is correct.

GTR I - Drop Db Tuning (eb,Bb,Gb,Db,Ab,Db)
GTR II - Drop Db Tuning (eb,Bb,Gb,Db,Ab,Db)

Intro

   GTR I
eb|-------------------------------------------------|
Bb|-------------------------------------------------|
Gb|-------------------------------------------------|
Db|--------------0-----------------0-----3----------|
Ab|--------0-----------0-----1-----------------2----|
Db|--0----------------------------------------------|

   GTR I
eb|-------------------------------------------------|
Bb|-------------------------------------------------|
Gb|--------------0-----------------------0----------|
Db|--------0-----------------------0----------------|
Ab|--------------------1----------------------------|
Db|--------------------------------------------3----|

   GTR I
eb|-------------------------------------------------|
Bb|-------------------------------------------------|
Gb|-------------------------------------------------|
Db|--------------0-----------------0-----3----------|
Ab|--------0-----------0-----1-----------------2----|
Db|--0----------------------------------------------|

   GTR I
eb|-------------------------------------------------|
Bb|-------------------------------------------------|
Gb|--------------0-----------------0----------------|
Db|--------0-----------------------------------2----|
Ab|--------------------1-----------------1----------|
Db|-------------------------------------------------|

   GTR I
eb|-------------------------------------------------|
Bb|-------------------------------------------------|
Gb|-------------------------------------------------|
Db|--------------0-----------------0-----3----------|
Ab|--------0-----------0-----1-----------------2----|
Db|--0----------------------------------------------|

   GTR I
eb|-------------------------------------------------|
Bb|-------------------------------------------------|
Gb|--------------0-----------------------0----------|
Db|--------0-----------------------0-----------0----|
Ab|--------------------1----------------------------|
Db|-------------------------------------------------|

   GTR I
eb|-------------------------------------------------|
Bb|-------------------------------------------------|
Gb|-------------------------------------------------|
Db|--------------3-----------3-----------3----------|
Ab|--------3-----------3-----------3-----------3----|
Db|--3----------------------------------------------|

   GTR I
eb|-------------------------------------------------|
Bb|-------------------------------------------------|
Gb|-------------------------------------------------|
Db|--------------5-----------x-----1----------------|
Ab|--------5-----------5-----x-----1----------------|
Db|--5-----------------------x-----1----------------|

   GTR I
eb|-------------------------------------------------|
Bb|-------------------------------------------------|
Gb|-------------------------------------------------|
Db|--------------0-----------------0-----3----------|
Ab|--------0-----------0-----1-----------------2----|
Db|--0----------------------------------------------|

   GTR I
eb|-------------------------------------------------|
Bb|-------------------------------------------------|
Gb|--------------0-----------------------0----------|
Db|--------0-----------------------0----------------|
Ab|--------------------1----------------------------|
Db|--------------------------------------------3----|

   GTR I
eb|-------------------------------------------------|
Bb|-------------------------------------------------|
Gb|-------------------------------------------------|
Db|--------------0-----------------0-----3----------|
Ab|--------0-----------0-----1-----------------2----|
Db|--0----------------------------------------------|

   GTR I
eb|-------------------------------------------------|
Bb|-------------------------------------------------|
Gb|--------------0-----------------0----------------|
Db|--------0-----------------------------------2----|
Ab|--------------------1-----------------1----------|
Db|-------------------------------------------------|

   GTR I
eb|-------------------------------------------------|
Bb|-------------------------------------------------|
Gb|-------------------------------------------------|
Db|--------------0-----------------0-----3----------|
Ab|--------0-----------0-----1-----------------2----|
Db|--0----------------------------------------------|

   GTR I
eb|-------------------------------------------------|
Bb|-------------------------------------------------|
Gb|--------------0-----------------------0----------|
Db|--------0-----------------------0-----------0----|
Ab|--------------------1----------------------------|
Db|-------------------------------------------------|

   GTR I
eb|-------------------------------------------------|
Bb|-------------------------------------------------|
Gb|-------------------------------------------------|
Db|--------------3-----------3-----------3----------|
Ab|--------3-----------3-----------3-----------3----|
Db|--3----------------------------------------------|

   GTR I
eb|-------------------------------------------------|
Bb|-------------------------------------------------|
Gb|-------------------------------------------------|
Db|--------------5-----------x-----1----------------|
Ab|--------5-----------5-----x-----1----------------|
Db|--5-----------------------x-----1----------------|

Intro 2

   GTR I
eb|-------------------------------------------------|
Bb|-------------------------------------------------|
Gb|-------------------------------------------------|
Db|--------------0-----------------0-----3----------|
Ab|--------0-----------0-----1-----------------2----|
Db|--0----------------------------------------------|
  |
  |GTR II
eb|-------------------------------------------------|
Bb|-------------------------------------------------|
Gb|-------------------------------------------------|
Db|-------------------------------------------------|
Ab|--0-----0-----------------------------0-----0----|
Db|--0-----0-----------------------------0-----0----|
     .     .                             .     .    

   GTR I
eb|-------------------------------------------------|
Bb|-------------------------------------------------|
Gb|--------------0-----------------------0----------|
Db|--------0-----------------------0----------------|
Ab|--------------------1----------------------------|
Db|--------------------------------------------3----|
  |
  |GTR II
eb|-------------------------------------------------|
Bb|-------------------------------------------------|
Gb|-------------------------------------------------|
Db|-------------------------------------------------|
Ab|--------------------------0-----0----------------|
Db|--------------------------0-----0----------------|
                             .     .                

   GTR I
eb|-------------------------------------------------|
Bb|-------------------------------------------------|
Gb|-------------------------------------------------|
Db|--------------0-----------------0-----3----------|
Ab|--------0-----------0-----1-----------------2----|
Db|--0----------------------------------------------|
  |
  |GTR II
eb|-------------------------------------------------|
Bb|-------------------------------------------------|
Gb|-------------------------------------------------|
Db|-------------------------------------------------|
Ab|--0-----0-----------------------------0-----0----|
Db|--0-----0-----------------------------0-----0----|
     .     .                             .     .    

   GTR I
eb|-------------------------------------------------|
Bb|-------------------------------------------------|
Gb|--------------0-----------------0----------------|
Db|--------0-----------------------------------2----|
Ab|--------------------1-----------------1----------|
Db|-------------------------------------------------|
  |
  |GTR II
eb|-------------------------------------------------|
Bb|-------------------------------------------------|
Gb|-------------------------------------------------|
Db|-------------------------------------------------|
Ab|--------------------------0-----0----------------|
Db|--------------------------0-----0----------------|
                             .     .                

   GTR I
eb|-------------------------------------------------|
Bb|-------------------------------------------------|
Gb|-------------------------------------------------|
Db|--------------0-----------------0-----3----------|
Ab|--------0-----------0-----1-----------------2----|
Db|--0----------------------------------------------|
  |
  |GTR II
eb|-------------------------------------------------|
Bb|-------------------------------------------------|
Gb|-------------------------------------------------|
Db|-------------------------------------------------|
Ab|--0-----0-----------------------------0-----0----|
Db|--0-----0-----------------------------0-----0----|
     .     .                             .     .    

   GTR I
eb|-------------------------------------------------|
Bb|-------------------------------------------------|
Gb|--------------0-----------------------0----------|
Db|--------0-----------------------0-----------0----|
Ab|--------------------1----------------------------|
Db|-------------------------------------------------|
  |
  |GTR II
eb|-------------------------------------------------|
Bb|-------------------------------------------------|
Gb|-------------------------------------------------|
Db|-------------------------------------------------|
Ab|--------------------------0-----0----------------|
Db|--------------------------0-----0----------------|
                             .     .                

   GTR I
eb|-------------------------------------------------|
Bb|-------------------------------------------------|
Gb|-------------------------------------------------|
Db|--------------3-----------3-----------3----------|
Ab|--------3-----------3-----------3-----------3----|
Db|--3----------------------------------------------|
  |
  |GTR II
eb|-------------------------------------------------|
Bb|-------------------------------------------------|
Gb|-------------------------------------------------|
Db|--3----------------------------------------------|
Ab|--3----------------------------------------------|
Db|--3----------------------------------------------|

   GTR I
eb|-------------------------------------------------|
Bb|-------------------------------------------------|
Gb|-------------------------------------------------|
Db|--------------5-----------x-----1----------------|
Ab|--------5-----------5-----x-----1----------------|
Db|--5-----------------------x-----1----------------|
  |
  |GTR II
eb|-------------------------------------------------|
Bb|-------------------------------------------------|
Gb|-------------------------------------------------|
Db|--5-----------------------x-----1----------------|
Ab|--5-----------------------x-----1----------------|
Db|--5-----------------------x-----1----------------|

   GTR I,II
eb|-------------------------------------------------|
Bb|-------------------------------------------------|
Gb|-------------------------------------------------|
Db|--0----------------------------------------------|
Ab|--0----------------------------------------------|
Db|--0----------------------------------------------|

Rest until 1:00

Intro 3

   GTR I
eb|-------------------------------------------------|
Bb|-------------------------------------------------|
Gb|-------------------------------------------------|
Db|-------------------------------------------------|
Ab|-------------------------------------------------|
Db|--1-----0-----0--0-----0--0-----0--0-----0--0--0-|

   GTR I
eb|-------------------------------------------------|
Bb|-------------------------------------------------|
Gb|-------------------------------------------------|
Db|-------------------------------------------------|
Ab|-------------------------------------------------|
Db|--------0--0--0--0-----0--0-----0--0-----0--3--6-|
  |
  |GTR II
eb|-------------------------------------------------|
Bb|-------------------------------------------------|
Gb|-------------------------------------------------|
Db|-------------------------------------------------|
Ab|-------------------------------------------------|
Db|--------0--0--0--0-----------------------0--3--6-|

   GTR I,II
eb|-------------------------------------------------|
Bb|-------------------------------------------------|
Gb|-------------------------------------------------|
Db|-------------------------------------------------|
Ab|--------------------------------------5--8--5----|
Db|--1-----0-----0--0-----0--0-----5--6-----------0-|

   GTR I
eb|-------------------------------------------------|
Bb|-------------------------------------------------|
Gb|-------------------------------------------------|
Db|-------------------------------------------------|
Ab|-------------------------------------------------|
Db|--3-----0--3-----0--2--2-------------------------|
  |
  |GTR II                       |-------PH.-------|
eb|-------------------------------------------------|
Bb|-------------------------------------------------|
Gb|-------------------------------------------------|
Db|-------------------------------------------------|
Ab|--------------------------------------5--6--5----|
Db|--3-----0--3-----0--2--2-----0--5--7-----------0-|

Main Riff

   GTR I,II
eb|-------------------------------------------------|
Bb|-------------------------------------------------|
Gb|-------------------------------------------------|
Db|-------------------------------------------------|
Ab|-------------------------------------------------|
Db|--1-----0-----0--0-----0--0-----0--0-----0--0--0-|

   GTR I,II
eb|-------------------------------------------------|
Bb|-------------------------------------------------|
Gb|-------------------------------------------------|
Db|-------------------------------------------------|
Ab|-------------------------------------------------|
Db|--------0--0--0--0-----0--0-----0--0-----0--3--6-|

   GTR I,II
eb|-------------------------------------------------|
Bb|-------------------------------------------------|
Gb|-------------------------------------------------|
Db|-------------------------------------------------|
Ab|--------------------------------------5--8--5----|
Db|--1-----0-----0--0-----0--0-----5--6-----------0-|

   GTR I,II
eb|-------------------------------------------------|
Bb|-------------------------------------------------|
Gb|-------------------------------------------------|
Db|-------------------------------------------------|
Ab|--------------------------------------5--6--5----|
Db|--3-----0--3-----0--2--2-----0--5--7-----------0-|

Verse

   GTR I,II
eb|-------------------------------------------------|
Bb|-------------------------------------------------|
Gb|-------------------------------------------------|
Db|-------------------------------------------------|
Ab|--------0-----0--0-----0--0-----0--0-----0--0--0-|
Db|--1-----0-----0--0-----0--0-----0--0-----0--0--0-|
           .     .  .     .  .     .  .     .  .  .

   GTR I,II
eb|-------------------------------------------------|
Bb|-------------------------------------------------|
Gb|-------------------------------------------------|
Db|-------------------------------------------------|
Ab|--------0--0--0--0-----0--0-----0--0-------------|
Db|--------0--0--0--0-----0--0-----0--0-----0--3--6-|
           .  .  .  .     .  .     .  .             

   GTR I,II
eb|-------------------------------------------------|
Bb|-------------------------------------------------|
Gb|-------------------------------------------------|
Db|-------------------------------------------------|
Ab|--------0-----0--0-----0--0-----------5--8--5----|
Db|--1-----0-----0--0-----0--0-----5--6-----------0-|
           .     .  .     .  .                     

   GTR I,II
eb|-------------------------------------------------|
Bb|-------------------------------------------------|
Gb|-------------------------------------------------|
Db|-------------------------------------------------|
Ab|--------------------------------------5--6--5----|
Db|--3-----0--3-----0--2--2-----0--5--7-----------0-|

   GTR I,II
eb|-------------------------------------------------|
Bb|-------------------------------------------------|
Gb|-------------------------------------------------|
Db|-------------------------------------------------|
Ab|--------0-----0--0-----0--0-----0--0-----0--0--0-|
Db|--1-----0-----0--0-----0--0-----0--0-----0--0--0-|
           .     .  .     .  .     .  .     .  .  .

   GTR I,II
eb|-------------------------------------------------|
Bb|-------------------------------------------------|
Gb|-------------------------------------------------|
Db|-------------------------------------------------|
Ab|--------0--0--0--0-----0--0-----0--0-------------|
Db|--------0--0--0--0-----0--0-----0--0-----0--3--6-|
           .  .  .  .     .  .     .  .             

   GTR I,II
eb|-------------------------------------------------|
Bb|-------------------------------------------------|
Gb|-------------------------------------------------|
Db|-------------------------------------------------|
Ab|--------0-----0--0-----0--0-----------5--8--5----|
Db|--1-----0-----0--0-----0--0-----5--6-----------0-|
           .     .  .     .  .                     

   GTR I,II
eb|-------------------------------------------------|
Bb|-------------------------------------------------|
Gb|-------------------------------------------------|
Db|-------------------------------------------------|
Ab|--------------------------------------5--6--5----|
Db|--3-----0--3-----0--2--2-----0--5--7-----------0-|

Pre-Chorus

   GTR I,II
eb|-------------------------------------------------|
Bb|-------------------------------------------------|
Gb|-------------------------------------------------|
Db|-------------------------------------------------|
Ab|-------------------------------------------------|
Db|--1-----0-----0--0-----0--0-----0--0-----0--0--0-|

   GTR I,II
eb|-------------------------------------------------|
Bb|-------------------------------------------------|
Gb|-------------------------------------------------|
Db|-------------------------------------------------|
Ab|-------------------------------------------------|
Db|--------0--0--0--0-----0--0-----0--0-----0--3--6-|

   GTR I,II
eb|-------------------------------------------------|
Bb|-------------------------------------------------|
Gb|-------------------------------------------------|
Db|-------------------------------------------------|
Ab|--------------------------------------5--8--5----|
Db|--1-----0-----0--0-----0--0-----5--6-----------0-|

   GTR I,II
eb|-------------------------------------------------|
Bb|-------------------------------------------------|
Gb|-------------------------------------------------|
Db|-------------------------------------------------|
Ab|--------------------------------------5--6--5----|
Db|--3-----0--3-----0--2--2-----0--5--7-----------0-|

   GTR I,II
eb|-------------------------------------------------|
Bb|-------------------------------------------------|
Gb|-------------------------------------------------|
Db|-------------------------------------------------|
Ab|-------------------------------------------------|
Db|-------------------------------------------------|

Chorus

   GTR I,II
eb|-------------------------------------------------|
Bb|-------------------------------------------------|
Gb|--3--3--3--3--3--3--3--3--3--3--3--3--3--3--3--3-|
Db|--3--3--3--3--3--3--3--3--3--3--3--3--3--3--3--3-|
Ab|--1--1--1--1--1--1--1--1--1--1--1--1--1--1--1--1-|
Db|-------------------------------------------------|

   GTR I,II
eb|-------------------------------------------------|
Bb|-------------------------------------------------|
Gb|-------------------------------------------------|
Db|--5--5--5--5--5--5--5--5--4--4--4--4--4--4--4--5-|
Ab|--5--5--5--5--5--5--5--5--4--4--4--4--4--4--4--5-|
Db|--5--5--5--5--5--5--5--5--4--4--4--4--4--4--4--5-|

   GTR I,II
eb|-------------------------------------------------|
Bb|-------------------------------------------------|
Gb|--5--5--5--5--5--5--5--5--5--5--5--5--5--5--5--5-|
Db|--5--5--5--5--5--5--5--5--5--5--5--5--5--5--5--5-|
Ab|--3--3--3--3--3--3--3--3--3--3--3--3--3--3--3--3-|
Db|-------------------------------------------------|

   GTR I,II
eb|-------------------------------------------------|
Bb|-------------------------------------------------|
Gb|-------------------------------------------------|
Db|--1--1--1--1--1--1--1--1--1--1--1--1--1--1--1--1-|
Ab|--1--1--1--1--1--1--1--1--1--1--1--1--1--1--1--1-|
Db|--1--1--1--1--1--1--1--1--1--1--1--1--1--1--1--1-|

   GTR I,II
eb|-------------------------------------------------|
Bb|-------------------------------------------------|
Gb|--3--3--3--3--3--3--3--3--3--3--3--3--3--3--3--3-|
Db|--3--3--3--3--3--3--3--3--3--3--3--3--3--3--3--3-|
Ab|--1--1--1--1--1--1--1--1--1--1--1--1--1--1--1--1-|
Db|-------------------------------------------------|

   GTR I,II
eb|-------------------------------------------------|
Bb|-------------------------------------------------|
Gb|-------------------------------------------------|
Db|--5--5--5--5--5--5--5--5--4--4--4--4--4--4--4--5-|
Ab|--5--5--5--5--5--5--5--5--4--4--4--4--4--4--4--5-|
Db|--5--5--5--5--5--5--5--5--4--4--4--4--4--4--4--5-|

   GTR I,II
eb|-------------------------------------------------|
Bb|-------------------------------------------------|
Gb|--5--5--5--5--5--5--5--5--5--5--5--5--5--5--5--5-|
Db|--5--5--5--5--5--5--5--5--5--5--5--5--5--5--5--5-|
Ab|--3--3--3--3--3--3--3--3--3--3--3--3--3--3--3--3-|
Db|-------------------------------------------------|

   GTR I,II
eb|-------------------------------------------------|
Bb|-------------------------------------------------|
Gb|--8--8--8--8--8--8--8--8--8--8--8--8--8--8--8--8-|
Db|--8--8--8--8--8--8--8--8--8--8--8--8--8--8--8--8-|
Ab|--6--6--6--6--6--6--6--6--6--6--6--6--6--6--6--6-|
Db|-------------------------------------------------|

Main Riff

   GTR I,II
eb|-------------------------------------------------|
Bb|-------------------------------------------------|
Gb|-------------------------------------------------|
Db|-------------------------------------------------|
Ab|-------------------------------------------------|
Db|--1-----0-----0--0-----0--0-----0--0-----0--0--0-|

   GTR I,II
eb|-------------------------------------------------|
Bb|-------------------------------------------------|
Gb|-------------------------------------------------|
Db|-------------------------------------------------|
Ab|-------------------------------------------------|
Db|--------0--0--0--0-----0--0-----0--0-----0--3--6-|

   GTR I,II
eb|-------------------------------------------------|
Bb|-------------------------------------------------|
Gb|-------------------------------------------------|
Db|-------------------------------------------------|
Ab|--------------------------------------5--8--5----|
Db|--1-----0-----0--0-----0--0-----5--6-----------0-|

   GTR I,II
eb|-------------------------------------------------|
Bb|-------------------------------------------------|
Gb|-------------------------------------------------|
Db|-------------------------------------------------|
Ab|--------------------------------------5--6--5----|
Db|--3-----0--3-----0--2--2-----0--5--7-----------0-|

Verse

   GTR I,II
eb|-------------------------------------------------|
Bb|-------------------------------------------------|
Gb|-------------------------------------------------|
Db|-------------------------------------------------|
Ab|--------0-----0--0-----0--0-----0--0-----0--0--0-|
Db|--1-----0-----0--0-----0--0-----0--0-----0--0--0-|
           .     .  .     .  .     .  .     .  .  .

   GTR I,II
eb|-------------------------------------------------|
Bb|-------------------------------------------------|
Gb|-------------------------------------------------|
Db|-------------------------------------------------|
Ab|--------0--0--0--0-----0--0-----0--0-------------|
Db|--------0--0--0--0-----0--0-----0--0-----0--3--6-|
           .  .  .  .     .  .     .  .             

   GTR I,II
eb|-------------------------------------------------|
Bb|-------------------------------------------------|
Gb|-------------------------------------------------|
Db|-------------------------------------------------|
Ab|--------0-----0--0-----0--0-----------5--8--5----|
Db|--1-----0-----0--0-----0--0-----5--6-----------0-|
           .     .  .     .  .                     

   GTR I,II
eb|-------------------------------------------------|
Bb|-------------------------------------------------|
Gb|-------------------------------------------------|
Db|-------------------------------------------------|
Ab|--------------------------------------5--6--5----|
Db|--3-----0--3-----0--2--2-----0--5--7-----------0-|

   GTR I,II
eb|-------------------------------------------------|
Bb|-------------------------------------------------|
Gb|-------------------------------------------------|
Db|-------------------------------------------------|
Ab|--------0-----0--0-----0--0-----0--0-----0--0--0-|
Db|--1-----0-----0--0-----0--0-----0--0-----0--0--0-|
           .     .  .     .  .     .  .     .  .  .

   GTR I,II
eb|-------------------------------------------------|
Bb|-------------------------------------------------|
Gb|-------------------------------------------------|
Db|-------------------------------------------------|
Ab|--------0--0--0--0-----0--0-----0--0-------------|
Db|--------0--0--0--0-----0--0-----0--0-----0--3--6-|
           .  .  .  .     .  .     .  .             

   GTR I,II
eb|-------------------------------------------------|
Bb|-------------------------------------------------|
Gb|-------------------------------------------------|
Db|-------------------------------------------------|
Ab|--------0-----0--0-----0--0-----------5--8--5----|
Db|--1-----0-----0--0-----0--0-----5--6-----------0-|
           .     .  .     .  .                     

   GTR I,II
eb|-------------------------------------------------|
Bb|-------------------------------------------------|
Gb|-------------------------------------------------|
Db|-------------------------------------------------|
Ab|--------------------------------------5--6--5----|
Db|--3-----0--3-----0--2--2-----0--5--7-----------0-|

Pre-Chorus

   GTR I,II
eb|-------------------------------------------------|
Bb|-------------------------------------------------|
Gb|-------------------------------------------------|
Db|-------------------------------------------------|
Ab|-------------------------------------------------|
Db|--1-----0-----0--0-----0--0-----0--0-----0--0--0-|

   GTR I,II
eb|-------------------------------------------------|
Bb|-------------------------------------------------|
Gb|-------------------------------------------------|
Db|-------------------------------------------------|
Ab|-------------------------------------------------|
Db|--------0--0--0--0-----0--0-----0--0-----0--3--6-|

   GTR I,II
eb|-------------------------------------------------|
Bb|-------------------------------------------------|
Gb|-------------------------------------------------|
Db|-------------------------------------------------|
Ab|--------------------------------------5--8--5----|
Db|--1-----0-----0--0-----0--0-----5--6-----------0-|

   GTR I,II
eb|-------------------------------------------------|
Bb|-------------------------------------------------|
Gb|-------------------------------------------------|
Db|-------------------------------------------------|
Ab|--------------------------------------5--6--5----|
Db|--3-----0--3-----0--2--2-----0--5--7-----------0-|

   GTR I,II
eb|-------------------------------------------------|
Bb|-------------------------------------------------|
Gb|-------------------------------------------------|
Db|-------------------------------------------------|
Ab|-------------------------------------------------|
Db|-------------------------------------------------|

Chorus

   GTR I,II
eb|-------------------------------------------------|
Bb|-------------------------------------------------|
Gb|--3--3--3--3--3--3--3--3--3--3--3--3--3--3--3--3-|
Db|--3--3--3--3--3--3--3--3--3--3--3--3--3--3--3--3-|
Ab|--1--1--1--1--1--1--1--1--1--1--1--1--1--1--1--1-|
Db|-------------------------------------------------|

   GTR I,II
eb|-------------------------------------------------|
Bb|-------------------------------------------------|
Gb|-------------------------------------------------|
Db|--5--5--5--5--5--5--5--5--4--4--4--4--4--4--4--5-|
Ab|--5--5--5--5--5--5--5--5--4--4--4--4--4--4--4--5-|
Db|--5--5--5--5--5--5--5--5--4--4--4--4--4--4--4--5-|

   GTR I,II
eb|-------------------------------------------------|
Bb|-------------------------------------------------|
Gb|--5--5--5--5--5--5--5--5--5--5--5--5--5--5--5--5-|
Db|--5--5--5--5--5--5--5--5--5--5--5--5--5--5--5--5-|
Ab|--3--3--3--3--3--3--3--3--3--3--3--3--3--3--3--3-|
Db|-------------------------------------------------|

   GTR I,II
eb|-------------------------------------------------|
Bb|-------------------------------------------------|
Gb|-------------------------------------------------|
Db|--1--1--1--1--1--1--1--1--1--1--1--1--1--1--1--1-|
Ab|--1--1--1--1--1--1--1--1--1--1--1--1--1--1--1--1-|
Db|--1--1--1--1--1--1--1--1--1--1--1--1--1--1--1--1-|

   GTR I,II
eb|-------------------------------------------------|
Bb|-------------------------------------------------|
Gb|--3--3--3--3--3--3--3--3--3--3--3--3--3--3--3--3-|
Db|--3--3--3--3--3--3--3--3--3--3--3--3--3--3--3--3-|
Ab|--1--1--1--1--1--1--1--1--1--1--1--1--1--1--1--1-|
Db|-------------------------------------------------|

   GTR I,II
eb|-------------------------------------------------|
Bb|-------------------------------------------------|
Gb|-------------------------------------------------|
Db|--5--5--5--5--5--5--5--5--4--4--4--4--4--4--4--5-|
Ab|--5--5--5--5--5--5--5--5--4--4--4--4--4--4--4--5-|
Db|--5--5--5--5--5--5--5--5--4--4--4--4--4--4--4--5-|

   GTR I,II
eb|-------------------------------------------------|
Bb|-------------------------------------------------|
Gb|--5--5--5--5--5--5--5--5--5--5--5--5--5--5--5--5-|
Db|--5--5--5--5--5--5--5--5--5--5--5--5--5--5--5--5-|
Ab|--3--3--3--3--3--3--3--3--3--3--3--3--3--3--3--3-|
Db|-------------------------------------------------|

   GTR I,II
eb|-------------------------------------------------|
Bb|-------------------------------------------------|
Gb|--8--8--8--8--8--8--8--8--8--8--8--8--8--8--8--8-|
Db|--8--8--8--8--8--8--8--8--8--8--8--8--8--8--8--8-|
Ab|--6--6--6--6--6--6--6--6--6--6--6--6--6--6--6--6-|
Db|-------------------------------------------------|

   GTR I,II
eb|-------------------------|-------------------------|
Bb|-------------------------|-------------------------|
Gb|-------------------------|-------------------------|
Db|--0----------------------|-------------------------|
Ab|--0----------------------|-------------------------|
Db|--0----------------------|-------------------------|

Guitar Solo

   GTR I
eb|-------------------------------------------------|
Bb|-------------------------------------------------|
Gb|-------------------------------------------------|
Db|--------------0-----------------0-----3----------|
Ab|--------0-----------0-----1-----------------2----|
Db|--0----------------------------------------------|
  |
  |GTR II
eb|-------------------------------------------------|
Bb|-13b--------------------------------r13b--r13~---|
Gb|-------------------------------------------------|
Db|-------------------------------------------------|
Ab|-------------------------------------------------|
Db|-------------------------------------------------|

   GTR I
eb|-------------------------------------------------|
Bb|-------------------------------------------------|
Gb|--------------0-----------------------0----------|
Db|--------0-----------------------0----------------|
Ab|--------------------1----------------------------|
Db|--------------------------------------------3----|
  |
  |GTR II
eb|-------------------------------------------------|
Bb|-------------------------------------------------|
Gb|-------------------------/9-------10-------12----|
Db|-------------------------------------------------|
Ab|-------------------------------------------------|
Db|-------------------------------------------------|

   GTR I
eb|-------------------------------------------------|
Bb|-------------------------------------------------|
Gb|-------------------------------------------------|
Db|--------------0-----------------0-----3----------|
Ab|--------0-----------0-----1-----------------2----|
Db|--0----------------------------------------------|
  |
  |GTR II                               PH.
eb|-------------------------------------------------|
Bb|-------------------------------------------------|
Gb|-10~---------10-----7~----------------5~---------|
Db|-------------------------------------------------|
Ab|-------------------------------------------------|
Db|-------------------------------------------------|

   GTR I
eb|-------------------------------------------------|
Bb|-------------------------------------------------|
Gb|--------------0-----------------0----------------|
Db|--------0-----------------------------------2----|
Ab|--------------------1-----------------1----------|
Db|-------------------------------------------------|
  |
  |GTR II
eb|-------------------------------------------------|
Bb|-------------------------------------------------|
Gb|-------------------------------------------------|
Db|--------3b----r----------------------------------|
Ab|--------------------------------3----/5----\3----|
Db|-------------------------------------------------|

   GTR I
eb|-------------------------------------------------|
Bb|-------------------------------------------------|
Gb|-------------------------------------------------|
Db|--------------0-----------------0-----3----------|
Ab|--------0-----------0-----1-----------------2----|
Db|--0----------------------------------------------|
  |
  |GTR II
eb|-------------------------------------------------|
Bb|-------------------------------------------------|
Gb|-------------------------------------------------|
Db|-------------------------------------------/8----|
Ab|--5-----------5-----8-----------5-----8----------|
Db|-------------------------------------------------|

   GTR I
eb|-------------------------------------------------|
Bb|-------------------------------------------------|
Gb|--------------0-----------------------0----------|
Db|--------0-----------------------0-----------0----|
Ab|--------------------1----------------------------|
Db|-------------------------------------------------|
  |
  |GTR II
eb|-------------------------------------------------|
Bb|--------------------------------------------6----|
Gb|--------------------------------5-----5--7-----7-|
Db|-----------7~-------------5--7-----7-------------|
Ab|-------------------------------------------------|
Db|-------------------------------------------------|

   GTR I
eb|-------------------------------------------------|
Bb|-------------------------------------------------|
Gb|-------------------------------------------------|
Db|--------------3-----------3-----------3----------|
Ab|--------3-----------3-----------3-----------3----|
Db|--3----------------------------------------------|
  |
  |GTR II
eb|-------------------------------------------------|
Bb|--6-----------------6----------------/8\---------|
Gb|--------------------------5----------------------|
Db|-------------------------------------------------|
Ab|-------------------------------------------------|
Db|-------------------------------------------------|

   GTR I
eb|-------------------------------------------------|
Bb|-------------------------------------------------|
Gb|-------------------------------------------------|
Db|--------------5-----------x-----1----------------|
Ab|--------5-----------5-----x-----1----------------|
Db|--5-----------------------x-----1----------------|
  |
  |GTR II
eb|-------------------------------------------------|
Bb|-/6~---------------------------------------------|
Gb|--------7-----5----------------------------------|
Db|--------------------7-----5----/7-----5p-3-------|
Ab|--------------------------------------------5p-3-|
Db|-------------------------------------------------|

   GTR I
eb|-------------------------------------------------|
Bb|-------------------------------------------------|
Gb|-------------------------------------------------|
Db|--------------0-----------------0-----3----------|
Ab|--------0-----------0-----1-----------------2----|
Db|--0----------------------------------------------|
  |
  |GTR II
eb|----------12h13p12----------12h13p12----12----12h|
Bb|-------------------13----------------13----------|
Gb|----------------------14-------------------------|
Db|-------------------------------------------------|
Ab|-------------------------------------------------|
Db|-------------------------------------------------|

   GTR I
eb|-------------------------------------------------|
Bb|-------------------------------------------------|
Gb|--------------0-----------------------0----------|
Db|--------0-----------------------0----------------|
Ab|--------------------1----------------------------|
Db|--------------------------------------------3----|
  |
  |GTR II
eb|-13p12----------12h13p12-------------------------|
Bb|-------13----------------13-------13----13b----r-|
Gb|----------14----------------14-------------------|
Db|-------------------------------------------------|
Ab|-------------------------------------------------|
Db|-------------------------------------------------|

   GTR I
eb|-------------------------------------------------|
Bb|-------------------------------------------------|
Gb|-------------------------------------------------|
Db|--------------0-----------------0-----3----------|
Ab|--------0-----------0-----1-----------------2----|
Db|--0----------------------------------------------|
  |
  |GTR II
eb|-------------------------------------------------|
Bb|-13~---------------------------------------------|
Gb|-------------------------------------------------|
Db|-------------------------------------------------|
Ab|-------------------------------------------------|
Db|-------------------------------------------------|

   GTR I
eb|-------------------------------------------------|
Bb|-------------------------------------------------|
Gb|--------------0-----------------0----------------|
Db|--------0-----------------------------------2----|
Ab|--------------------1-----------------1----------|
Db|-------------------------------------------------|
  |
  |GTR II
eb|-------------------------------------------------|
Bb|-------------------------------------------------|
Gb|-------------------------------------------------|
Db|-------------------------------------------------|
Ab|-------------------------------------------------|
Db|-------------------------------------------------|

   GTR I
eb|-------------------------------------------------|
Bb|-------------------------------------------------|
Gb|-------------------------------------------------|
Db|--------------0-----------------0-----3----------|
Ab|--------0-----------0-----1-----------------2----|
Db|--0----------------------------------------------|
  |
  |GTR II
eb|-------------------------------------------------|
Bb|-------------------------------------------------|
Gb|-------------------------------------------------|
Db|-------------------------------------------------|
Ab|-------------------------------------------------|
Db|-------------------------------------------------|

   GTR I
eb|-------------------------------------------------|
Bb|-------------------------------------------------|
Gb|--------------0-----------------------0----------|
Db|--------0-----------------------0-----------0----|
Ab|--------------------1----------------------------|
Db|-------------------------------------------------|
  |
  |GTR II
eb|-------------------------------------------------|
Bb|-------------------------------------------------|
Gb|-------------------------------------------------|
Db|-------------------------------------------------|
Ab|-------------------------------------------------|
Db|-------------------------------------------------|

   GTR I
eb|-------------------------------------------------|
Bb|-------------------------------------------------|
Gb|-------------------------------------------------|
Db|--3----------------------------------------------|
Ab|--3----------------------------------------------|
Db|--3----------------------------------------------|
  |
  |GTR II
eb|-------------------------------------------------|
Bb|-------------------------------------------------|
Gb|-------------------------------------------------|
Db|-------------------------------------------------|
Ab|-------------------------------------------------|
Db|-------------------------------------------------|

   GTR I
eb|-------------------------------------------------|
Bb|-------------------------------------------------|
Gb|-------------------------------------------------|
Db|--5-----------------------x-----1----------------|
Ab|--5-----------------------x-----1----------------|
Db|--5-----------------------x-----1----------------|
  |
  |GTR II
eb|-------------------------------------------------|
Bb|-------------------------------------------------|
Gb|-------------------------------------------------|
Db|-------------------------------------------------|
Ab|-------------------------------------------------|
Db|-------------------------------------------------|

   GTR I
eb|-------------------------------------------------|
Bb|-------------------------------------------------|
Gb|-------------------------------------------------|
Db|--0----------------------------------------------|
Ab|--0----------------------------------------------|
Db|--0----------------------------------------------|
  |
  |GTR II
eb|-------------------------------------------------|
Bb|-------------------------------------------------|
Gb|-------------------------------------------------|
Db|-------------------------------------------------|
Ab|-------------------------------------------------|
Db|-------------------------------------------------|

Chorus

   GTR I,II
eb|-------------------------------------------------|
Bb|-------------------------------------------------|
Gb|--3--3--3--3--3--3--3--3--3--3--3--3--3--3--3--3-|
Db|--3--3--3--3--3--3--3--3--3--3--3--3--3--3--3--3-|
Ab|--1--1--1--1--1--1--1--1--1--1--1--1--1--1--1--1-|
Db|-------------------------------------------------|

   GTR I,II
eb|-------------------------------------------------|
Bb|-------------------------------------------------|
Gb|-------------------------------------------------|
Db|--5--5--5--5--5--5--5--5--4--4--4--4--4--4--4--5-|
Ab|--5--5--5--5--5--5--5--5--4--4--4--4--4--4--4--5-|
Db|--5--5--5--5--5--5--5--5--4--4--4--4--4--4--4--5-|

   GTR I,II
eb|-------------------------------------------------|
Bb|-------------------------------------------------|
Gb|--5--5--5--5--5--5--5--5--5--5--5--5--5--5--5--5-|
Db|--5--5--5--5--5--5--5--5--5--5--5--5--5--5--5--5-|
Ab|--3--3--3--3--3--3--3--3--3--3--3--3--3--3--3--3-|
Db|-------------------------------------------------|

   GTR I,II
eb|-------------------------------------------------|
Bb|-------------------------------------------------|
Gb|-------------------------------------------------|
Db|--1--1--1--1--1--1--1--1--1--1--1--1--1--1--1--1-|
Ab|--1--1--1--1--1--1--1--1--1--1--1--1--1--1--1--1-|
Db|--1--1--1--1--1--1--1--1--1--1--1--1--1--1--1--1-|

   GTR I,II
eb|-------------------------------------------------|
Bb|-------------------------------------------------|
Gb|--3--3--3--3--3--3--3--3--3--3--3--3--3--3--3--3-|
Db|--3--3--3--3--3--3--3--3--3--3--3--3--3--3--3--3-|
Ab|--1--1--1--1--1--1--1--1--1--1--1--1--1--1--1--1-|
Db|-------------------------------------------------|

   GTR I,II
eb|-------------------------------------------------|
Bb|-------------------------------------------------|
Gb|-------------------------------------------------|
Db|--5--5--5--5--5--5--5--5--4--4--4--4--4--4--4--5-|
Ab|--5--5--5--5--5--5--5--5--4--4--4--4--4--4--4--5-|
Db|--5--5--5--5--5--5--5--5--4--4--4--4--4--4--4--5-|

   GTR I,II
eb|-------------------------------------------------|
Bb|-------------------------------------------------|
Gb|--5--5--5--5--5--5--5--5--5--5--5--5--5--5--5--5-|
Db|--5--5--5--5--5--5--5--5--5--5--5--5--5--5--5--5-|
Ab|--3--3--3--3--3--3--3--3--3--3--3--3--3--3--3--3-|
Db|-------------------------------------------------|

   GTR I,II
eb|-------------------------------------------------|
Bb|-------------------------------------------------|
Gb|--8--8--8--8--8--8--8--8--8--8--8--8--8--8--8--8-|
Db|--8--8--8--8--8--8--8--8--8--8--8--8--8--8--8--8-|
Ab|--6--6--6--6--6--6--6--6--6--6--6--6--6--6--6--6-|
Db|-------------------------------------------------|

Outro

   GTR I,II
eb|-------------------------------------------------|
Bb|-------------------------------------------------|
Gb|-------------------------------------------------|
Db|-------------------------------------------------|
Ab|-------------------------------------------------|
Db|--1-----0-----0--0-----0--0-----0--0-----0--0--0-|

   GTR I,II
eb|-------------------------------------------------|
Bb|-------------------------------------------------|
Gb|-------------------------------------------------|
Db|-------------------------------------------------|
Ab|-------------------------------------------------|
Db|--------0--0--0--0-----0--0-----0--0-----0--3--6-|

   GTR I,II
eb|-------------------------------------------------|
Bb|-------------------------------------------------|
Gb|-------------------------------------------------|
Db|-------------------------------------------------|
Ab|-------------------------------------------------|
Db|--1-----0-----0--0-----0--0-----0--0-----0--0--0-|

   GTR I,II
eb|-------------------------------------------------|
Bb|-------------------------------------------------|
Gb|-------------------------------------------------|
Db|-------------------------------------------------|
Ab|-------------------------------------------------|
Db|--------0--0--0--0-----0--0-----0--0-----0--3--6-|

   GTR I,II
eb|-------------------------------------------------|
Bb|-------------------------------------------------|
Gb|-------------------------------------------------|
Db|-------------------------------------------------|
Ab|-------------------------------------------------|
Db|--1-----0-----0--0-----0--0-----0--0-----0--0--0-|

   GTR I,II
eb|-------------------------------------------------|
Bb|-------------------------------------------------|
Gb|-------------------------------------------------|
Db|-------------------------------------------------|
Ab|-------------------------------------------------|
Db|--------0--0--0--0-----0--0-----0--0-----0--3--6-|

   GTR I,II
eb|-------------------------------------------------|
Bb|-------------------------------------------------|
Gb|-------------------------------------------------|
Db|-------------------------------------------------|
Ab|-------------------------------------------------|
Db|--1-----0-----0--0-----0--0-----0--0-----0--0--0-|

   GTR I,II
eb|-------------------------------------------------|
Bb|-------------------------------------------------|
Gb|-------------------------------------------------|
Db|-------------------------------------------------|
Ab|--------------------------------------5--6--5----|
Db|--------0--0--0--0-----0-----0--5--7-----------0-|


| b  bend
| r  release bend
|trp triplet
|PH. pinch harmonic
|fbk feedback
| .  palm-mute
| /  slide up
| \  slide down
| h  hammer-on
| p  pull-off
| ~  vibrato
|(7) harmonic
| x  Mute note
===============================================================================
comments
We did not receive enough feedback on this tab! Please rate:
print report bad tab
1 2 3 4 5
3 comments total.
0 reply
knights70 wrote on November 4 2010, 03:29 pm

Awesome tab man! That's pretty much the way I thought it was played. Excellent!

0 reply
slash.r0cks wrote on December 8 2010, 06:46 am

Really good work. Only a few things, if you need help with the solo, I suggest YouTube-ing Disturbed Dissected. Dan teaches how to play this, Asylum, Remnants, The Animal and some older stuff too. Also, I think the pinch harmonic in the solo is bent and on the 2nd fret; that's how I play it.

Still, a very solid tab. Thanks for tabbing; 5 stars :)

0 reply
slash.r0cks wrote on December 8 2010, 06:48 am

Well...I would rate it if my text version of the tab wasn't on the TPA :) haha remind me to get back to this. :D

I want to post or [tab]
guest
You may want to rate the tab now too:
select rating
Please do not post tabs as comments. Select "correction" instead!