Oops, an error
Loading. Please wait.

Asylum Bass Tab

ver1
ver1

Whole song

Interactive

More versions @911Tabs.com
11,543 views 24 this week
1 commentread comment
1 2 3 4 5
excellent!
x 3
Autoscroll
+/-
esc
set tempo
stop
Contributor
Difficulty
Tuning
intermediate
D# G# C# F# A# D#
Hey! There's an official Ultimate Guitar app which is ideal
for learning songs when you're away from computer. Get the app
WARNING: You are trying to view
                                    content from Ultimate-Guitar.com
                                    in an unauthorized application,
                                    which is prohibited.

                                    Please use an official Ultimate
                                    Guitar Tabs application for iPhone,
                                    iPad or Android to access legitimate
                                    chords, guitar, bass, and drum tabs
                                    from Ultimate-Guitar.com database.

                                    Type "ultimate guitar tabs" in Apple
                                    App Store's or Android Market's
                                    search to find the application.
Title: Asylum
Artist: Disturbed
Album: Asylum
Copyright: Disturbed
Tabber: Steve Miller (original tab)-(theflyingapple)
Tempo = 180
Bass

Legend
L - tied note
x - dead note
h - hammer on/pull off
b - bend
s - slide
~ - vibrato
g - ghost note
> - accentuated note
t - trill
M - palm mute
. - staccato
P - popping (bass)
S - slapping (bass)
+ - tapping
W - wide vibrato
< - fade in
w - whammy bar
= - tremolo picking
v - brush up
^ - brush down
V - pick stroke up
n - pick stroke down


F#|----------------------------|----------------------------|
C#|----------------------------|----------------------------|
G#|----------------------------|----------------------------|
D#|--12-0--0--0--0--13-0--0----|--5--0--0--6--0--0--6s-3----|


----------------------------|----------------------------|
----------------------------|----------------------------|
----------------------------|----------------------------|
--12-0--0--13-0--0--5--0----|--0--6--0--0--3--3--3--3----|


----------------------------|----------------------------|
----------------------------|----------------------------|
----------------------------|----------------------------|
--12-0--0--0--0--13-0--0----|--5--0--0--6--0--0--6s-3----|


----------------------------|----------------------------|
----------------------------|----------------------------|
----------------------------|----------------------------|
--12-0--0--13-0--0--5--0----|--0--6--0--0--3--3--3--3----|


----------------------------|----------------------------|
----------------------------|----------------------------|
----------------------------|----------------------------|
--12-0--0--0--0--13-0--0----|--5--0--0--6--0--0--6s-3----|


----------------------------|----------------------------|
----------------------------|----------------------------|
----------------------------|----------------------------|
--12-0--0--13-0--0--5--0----|--0--6--0--0--3--3--3--3----|


----------------------------|----------------------------|
----------------------------|----------------------------|
----------------------------|----------------------------|
--12-0--0--0--0--13-0--0----|--5--0--0--6--0--0--6s-3----|


----------------------------|----------------------------|
----------------------------|----------------------------|
----------------------------|----------------------------|
--12-0--0--13-0--0--5--0----|--0--6--0--0--3--3--3--3----|


----------------------------|----------------------------|
----------------------------|----------------------------|
----------------------------|----------------------------|
--12-0--0--0--0--13-0--0----|--5--0--0--6--0--0--6s-3----|


----------------------------|----------------------------|
----------------------------|----------------------------|
----------------------------|----------------------------|
--12-0--0--13-0--0--5--0----|--0--6--0--0--3--3--3--3----|


----------------------------|----------------------------|
----------------------------|----------------------------|
----------------------------|----------------------------|
--12-0--0--0--0--13-0--0----|--5--0--0--6--0--0--6s-3----|


----------------------------|----------------------------|
----------------------------|----------------------------|
----------------------------|----------------------------|
--12-0--0--13-0--0--5--0----|--0--6--0--0--8--8--8--8----|


----------------------------|----------------------------|
----------------------------|----------------------------|
----------------------------|----------------------------|
--12-0--0--0--0--13-0--0----|--5--0--0--6--0--0--6s-3----|


----------------------------|----------------------------|
----------------------------|----------------------------|
----------------------------|----------------------------|
--12-0--0--13-0--0--5--0----|--0--6--0--0--3--3--3--3----|


----------------------------|----------------------------|
----------------------------|----------------------------|
----------------------------|----------------------------|
--12-0--0--0--0--13-0--0----|--5--0--0--6--0--0--6s-3----|


----------------------------|----------------------------|
----------------------------|----------------------------|
----------------------------|----------------------------|
--12-0--0--13-0--0--5--0----|--0--6--0--0--8--8--8--8----|


----------------------------|----------------------------|
----------------------------|----------------------------|
----------------------------|----------------------------|
--12-0--0--0--0--13-0--0----|--5--0--0--6--0--0--6s-3----|


----------------------------|----------------------------|
----------------------------|----------------------------|
----------------------------|----------------------------|
--12-0--0--13-0--0--5--0----|--0--6--0--0--3--3--3--3----|


----------------------------|----------------------------|
----------------------------|----------------------------|
----------------------------|----------------------------|
--12-0--0--0--0--13-0--0----|--5--0--0--6--0--0--6s-3----|


----------------------------|----------------------------|
----------------------------|----------------------------|
----------------------------|----------------------------|
--12-0--0--13-0--0--5--0----|--0--6--0--0--8--8--8--8----|


----------------------------|----------------------------|
----------------------------|----------------------------|
--2--2--2--2--2-------------|----------------------------|
-----------------1--1--1----|--0--0--0--0--3--3--3--3----|


----------------------------|----------------------------|
----------------------------|----------------------------|
--2--2--2-------------------|----------------------------|
-----------1--1--1--0--0----|--0--3--3--3--5--5--5--5----|


----------------------------|----------------------------|
----------------------------|----------------------------|
--2--2--2--2--2-------------|----------------------------|
-----------------1--1--1----|--0--0--0--0--3--3--3--3----|


----------------------------|----------------------------|
----------------------------|----------------------------|
--2--2--2-------------------|----------------------------|
-----------1--1--1--0--0----|--0--3--3--3--5--5--5--5----|


----------------------------|----------------------------|
----------------------------|----------------------------|
----------------------------|----------------------------|
--12-0--0--0--0--13-0--0----|--5--0--0--6--0--0--6s-3----|


----------------------------|----------------------------|
----------------------------|----------------------------|
----------------------------|----------------------------|
--12-0--0--13-0--0--5--0----|--0--6--0--0--3--3--3--3----|


----------------------------|----------------------------|
----------------------------|----------------------------|
----------------------------|----------------------------|
--12-0--0--0--0--13-0--0----|--5--0--0--6--0--0--6s-3----|


----------------------------|----------------------------|
----------------------------|----------------------------|
----------------------------|----------------------------|
--12-0--0--13-0--0--5--0----|--0--6--0--0--3--3--3--3----|


----------------------------|----------------------------|
----------------------------|----------------------------|
----------------------------|----------------------------|
--12-0--0--0--0--13-0--0----|--5--0--0--6--0--0--6s-3----|


----------------------------|----------------------------|
----------------------------|----------------------------|
----------------------------|----------------------------|
--12-0--0--13-0--0--5--0----|--0--6--0--0--3--3--3--3----|


----------------------------|----------------------------|
----------------------------|----------------------------|
----------------------------|----------------------------|
--12-0--0--0--0--13-0--0----|--5--0--0--6--0--0--6s-3----|


----------------------------|----------------------------|
----------------------------|----------------------------|
----------------------------|----------------------------|
--12-0--0--13-0--0--5--0----|--0--6--0--0--8--8--8--8----|


----------------------------|----------------------------|
----------------------------|----------------------------|
--2--2--2--2--2-------------|----------------------------|
-----------------1--1--1----|--0--0--0--0--3--3--3--3----|


----------------------------|----------------------------|
----------------------------|----------------------------|
--2--2--2-------------------|----------------------------|
-----------1--1--1--0--0----|--0--3--3--3--5--5--5--5----|


----------------------------|----------------------------|
----------------------------|----------------------------|
--2--2--2--2--2-------------|----------------------------|
-----------------1--1--1----|--0--0--0--0--3--3--3--3----|


----------------------------|----------------------------|
----------------------------|----------------------------|
--2--2--2-------------------|----------------------------|
-----------1--1--1--0--0----|--0--3--3--3--5--5--5--5----|


----------------------------|
----------------------------|
--7-------------------------|
--------0--0--0--0--0--1L---|


----------------------------------------------------|
----------------------------------------------------|
----------------------------------------------------|
--1-----0-----0-----0-----0-----0-----0--0--0-------|


----------------------------|
----------------------------|
----------------------------|
--0--6--0--0--0--0--0--1L---|


----------------------------------------------------|
----------------------------------------------------|
----------------------------------------------------|
--1-----0-----0--0--0-----0-----0-----0--0--0-------|


----------------------------|
----------------------------|
--7-------------------------|
--------0--0--0--0--0--1L---|


----------------------------------------------------|
----------------------------------------------------|
----------------------------------------------------|
--1-----0-----0-----0-----0-----0-----0--0--0-------|


----------------------------|
----------------------------|
----------------------------|
--0--6--0--0--0--0--0--1L---|


--------------------------------------------------------------------------------|
--------------------------------------------------------------------------------|
--------------------------------------------------------------------------------|
--1-----------------0-----------------0--------0--------0-----------------3-----|


--------------------------------------------------------------------|
--------------------------------------------------------------------|
--------------------------------------------------------------------|
------------------3-----------------------3-------------------------|


----------------------------|
----------------------------|
--7-------------------------|
--------0--0--0--0--0--1L---|


----------------------------------------------------|
----------------------------------------------------|
----------------------------------------------------|
--1-----0-----0-----0-----0-----0-----0--0--0-------|


----------------------------|
----------------------------|
----------------------------|
--0--6--0--0--0--0--0--1L---|


----------------------------------------------------|
----------------------------------------------------|
----------------------------------------------------|
--1-----0-----0--0--0-----0-----0-----0--0--0-------|


----------------------------|----------------------------|
----------------------------|----------------------------|
----------------------------|----------------------------|
--5--------5--------5L------|--5--5--------5-----5-------|


----------------------------|----------------------------|
----------------------------|----------------------------|
----------------------------|----------------------------|
--7--7--7--7--7--7--7--7----|--7--3--3--3--3--3--3--3----|


----------------------------|----------------------------|
----------------------------|----------------------------|
----------------------------|----------------------------|
--12-0--0--0--0--13-0--0----|--5--0--0--6--0--0--6s-3----|


----------------------------|----------------------------|
----------------------------|----------------------------|
----------------------------|----------------------------|
--12-0--0--13-0--0--5--0----|--0--6--0--0--3--3--3--3----|


----------------------------|----------------------------|
----------------------------|----------------------------|
----------------------------|----------------------------|
--12-0--0--0--0--13-0--0----|--5--0--0--6--0--0--6s-3----|


----------------------------|----------------------------|
----------------------------|----------------------------|
----------------------------|----------------------------|
--12-0--0--13-0--0--5--0----|--0--6--0--0--8--8--8--8----|


----------------------------|----------------------------|
----------------------------|----------------------------|
----------------------------|----------------------------|
--12-0--0--0--0--13-0--0----|--5--0--0--6--0--0--6s-3----|


----------------------------|----------------------------|
----------------------------|----------------------------|
----------------------------|----------------------------|
--12-0--0--13-0--0--5--0----|--0--6--0--0--3--3--3--3----|


----------------------------|----------------------------|
----------------------------|----------------------------|
----------------------------|----------------------------|
--12-0--0--0--0--13-0--0----|--5--0--0--6--0--0--6s-3----|


----------------------------|----------------------------|
----------------------------|----------------------------|
----------------------------|----------------------------|
--12-0--0--13-0--0--5--0----|--0--6--0--0--8--8--8--8----|


----------------------------|----------------------------|
----------------------------|----------------------------|
----------------------------|----------------------------|
--12-0--0--0--0--13-0--0----|--5--0--0--6--0--0--6s-3----|


----------------------------|----------------------------|
----------------------------|----------------------------|
----------------------------|----------------------------|
--12-0--0--13-0--0--5--0----|--0--6--0--0--3--3--3--3----|


----------------------------|----------------------------|
----------------------------|----------------------------|
----------------------------|----------------------------|
--12-0--0--0--0--13-0--0----|--5--0--0--6--0--0--6s-3----|


----------------------------|----------------------------|
----------------------------|----------------------------|
----------------------------|----------------------------|
--12-0--0--13-0--0--5--0----|--0--6--0--0--8--8--8--8----|


----------------------------|----------------------------|
----------------------------|----------------------------|
--2--2--2--2--2-------------|----------------------------|
-----------------1--1--1----|--0--0--0--0--3--3--3--3----|


----------------------------|----------------------------|
----------------------------|----------------------------|
--2--2--2-------------------|----------------------------|
-----------1--1--1--0--0----|--0--3--3--3--5--5--5--5----|


----------------------------|----------------------------|
----------------------------|----------------------------|
--2--2--2--2--2-------------|----------------------------|
-----------------1--1--1----|--0--0--0--0--3--3--3--3----|


----------------------------|----------------------------|
----------------------------|----------------------------|
--2--2--2-------------------|----------------------------|
-----------1--1--1--0--0----|--0--3--3--3--5--5--5--5----|


----------------------------|
----------------------------|
--7-------------------------|
--------0--0--0--0--0--1L---|


----------------------------------------------------|
----------------------------------------------------|
----------------------------------------------------|
--1-----0-----0-----0-----0-----0-----0--0--0-------|


----------------------------|
----------------------------|
----------------------------|
--0--6--0--0--0--0--0--1L---|


----------------------------------------------------|
----------------------------------------------------|
----------------------------------------------------|
--1-----0-----0--0--0-----0-----0-----0--0--0-------|


----------------------------|
----------------------------|
--7-------------------------|
--------0--0--0--0--0--1L---|


----------------------------------------------------|
----------------------------------------------------|
----------------------------------------------------|
--1-----0-----0-----0-----0-----0-----0--0--0-------|


----------------------------|
----------------------------|
----------------------------|
--0--6--0--0--0--0--0--1L---|


--------------------------------------------------------------------------------|
--------------------------------------------------------------------------------|
--------------------------------------------------------------------------------|
--1-----------------0-----------------0--------0--------0-----------------3-----|


--------------------------------------------------------------------|
--------------------------------------------------------------------|
--------------------------------------------------------------------|
------------------3-----------------------3-------------------------|


----------------------------|
----------------------------|
--7-------------------------|
--------0--0--0--0--0--1L---|


----------------------------------------------------|
----------------------------------------------------|
----------------------------------------------------|
--1-----0-----0-----0-----0-----0-----0--0--0-------|


----------------------------|
----------------------------|
----------------------------|
--0--6--0--0--0--0--0--1L---|


----------------------------------------------------|
----------------------------------------------------|
----------------------------------------------------|
--1-----0-----0--0--0-----0-----0-----0--0--0-------|


----------------------------|----------------------------|
----------------------------|----------------------------|
----------------------------|----------------------------|
--5--------5--------5L------|--5--5--------5-----5-------|


----------------------------|----------------------------|-------|-------|
----------------------------|----------------------------|-------|-------|
----------------------------|----------------------------|-------|-------|
--7--7--7--7--7--7--7--7----|--7--3--3--3--3--3--3--3----|--0L---|--0----|


----------------------------|----------------------------|-------|
----------------------------|----------------------------|-------|
----------------------------|--------------8--8--5--5----|-------|
--0-------------------------|----------------------------|-------|


----------------------------|----------------------------|
----------------------------|----------------------------|
----------------------------|--------------8--8--5--5----|
--0-------------------------|----------------------------|


----------------------------|----------------------------|
----------------------------|----------------------------|
--------------------5-------|-----------2--2--2--5--5----|
----------------------------|--0--0--0-------------------|


----------------------------|----------------------------|
----------------------------|----------------------------|
--5--8--8--8--8--5--5--5----|-----------2--2--2--5--8----|
----------------------------|--0--0--0-------------------|


----------------------------|----------------------------|
----------------------------|----------------------------|
-----------2--2--2--5--5----|--5--8--8--8--8--5--5--5----|
--0--0--0-------------------|----------------------------|


----------------------------|----------------------------|
----------------------------|----------------------------|
-----------2--2--2--5--5----|-----------2--2--2--5--5----|
--0--0--0-------------------|--0--0--0-------------------|


----------------------------|----------------------------|
----------------------------|----------------------------|
--5--8--8--8--8--5--5--5----|-----------2--2--2--5--8----|
----------------------------|--0--0--0-------------------|


----------------------------|----------------------------|
----------------------------|----------------------------|
-----------2--2--2--5--5----|--5--8--8--8--8--5--5--5----|
--0--0--0-------------------|----------------------------|


----------------------------|----------------------------|
----------------------------|----------------------------|
-----------2--2--2--5--5----|--3--------3--3--3--3L------|
--0--0--0-------------------|----------------------------|


----------------------------|----------------------------|
----------------------------|----------------------------|
--3--3--3--3--3-----5-------|----------------------------|
----------------------------|--5--5--5--5--5--5--5--5----|


----------------------------|----------------------------|
----------------------------|----------------------------|
----------------------------|--3--------3--3--3--3L------|
--5--5--5--5--5--5--5--5----|----------------------------|


----------------------------|----------------------------|
----------------------------|----------------------------|
--3--3--3--3--3-----5-------|----------------------------|
----------------------------|--0--0--0--0--0--0--0--0----|


----------------------------|----------------------------|
----------------------------|----------------------------|
----------------------------|--3--------3--3--3--3L------|
--0--0--0--0--0--0--0--0----|----------------------------|


----------------------------|----------------------------|
----------------------------|----------------------------|
--3--3--3--3--3-----5-------|----------------------------|
----------------------------|--5--5--5--5--5--5--5--5----|


----------------------------|----------------------------|
----------------------------|----------------------------|
----------------------------|--2--------2--2--2--2L------|
--5--5--5--5--5--5--5--5----|----------------------------|


----------------------------|----------------------------|
----------------------------|----------------------------|
--2--2--2--2--2--2--2--2----|--2--1--1--1--1--1--1--1----|
----------------------------|----------------------------|


----------------------------|----------------------------|
----------------------------|----------------------------|
--1-------------------------|--7-------------------------|
-----3--3--3--3--3--3--3----|--------0--0--0--0--0--1L---|


----------------------------------------------------|
----------------------------------------------------|
----------------------------------------------------|
--1-----0-----0-----0-----0-----0-----0--0--0-------|


----------------------------|
----------------------------|
----------------------------|
--0--6--0--0--0--0--0--1L---|


----------------------------------------------------|
----------------------------------------------------|
----------------------------------------------------|
--1-----0-----0--0--0-----0-----0-----0--0--0-------|


----------------------------|
----------------------------|
--7-------------------------|
--------0--0--0--0--0--1L---|


----------------------------------------------------|
----------------------------------------------------|
----------------------------------------------------|
--1-----0-----0-----0-----0-----0-----0--0--0-------|


----------------------------|
----------------------------|
----------------------------|
--0--6--0--0--0--0--0--1L---|


--------------------------------------------------------------------------------|
--------------------------------------------------------------------------------|
--------------------------------------------------------------------------------|
--1-----------------0-----------------0--------0--------0-----------------3-----|


--------------------------------------------------------------------|
--------------------------------------------------------------------|
--------------------------------------------------------------------|
------------------3-----------------------3-------------------------|


----------------------------|
----------------------------|
--7-------------------------|
--------0--0--0--0--0--1L---|


----------------------------------------------------|
----------------------------------------------------|
----------------------------------------------------|
--1-----0-----0-----0-----0-----0-----0--0--0-------|


----------------------------|
----------------------------|
----------------------------|
--0--6--0--0--0--0--0--1L---|


----------------------------------------------------|
----------------------------------------------------|
----------------------------------------------------|
--1-----0-----0--0--0-----0-----0-----0--0--0-------|


----------------------------|----------------------------|
----------------------------|----------------------------|
----------------------------|----------------------------|
--5--------5--------5L------|--5--5--------5-----5-------|


----------------------------|----------------------------|
----------------------------|----------------------------|
----------------------------|----------------------------|
--7--7--7--7--7--7--7--7----|--7--3--3--3--3--3--3--3----|


----------------------------|----------------------------|
----------------------------|----------------------------|
----------------------------|----------------------------|
--12----0--0--0--13-0--0----|--5--0--0--6--0--0--6s-3----|


----------------------------|----------------------------|
----------------------------|----------------------------|
----------------------------|----------------------------|
--12----0--0--0--0--0--0----|--0--0--0--0--0--0--0--0----|


----------------------------|----------------------------|
----------------------------|----------------------------|
----------------------------|----------------------------|
--12----0--0--0--13-0--0----|--5--0--0--6--0--0--6s-3----|


----------------------------|----------------------------|
----------------------------|----------------------------|
----------------------------|----------------------------|
--12----0--0--0--0--0--0----|--0--0--0--0--0--0--0--0----|


----------------------------|----------------------------|
----------------------------|----------------------------|
----------------------------|----------------------------|
--12----0--0--0--13-0--0----|--5--0--0--6--0--0--6s-3----|


----------------------------|----------------------------|
----------------------------|----------------------------|
----------------------------|----------------------------|
--12----0--0--0--0--0--0----|--0--0--0--0--0--0--0--0----|


----------------------------|----------------------------|
----------------------------|----------------------------|
----------------------------|----------------------------|
--12----0--0--0--13-0--0----|--5--0--0--6--0--0--6s-3----|


----------------------------|----------------------------|-------||
----------------------------|----------------------------|-------||
----------------------------|----------------------------|-------||
--12----0--0--0--0--0--0----|--0--0--0--0--0--0--0--0----|--0----||
comments
We did not receive enough feedback on this tab! Please rate:
print report bad tab
1 2 3 4 5
1 comment total.
0 reply
EricDaCableGuy wrote on May 11 2013, 12:48 pm

disturbed has the craziest tunings drop d#G#C#F# ? thatd kill my bass if i tuned it haha

I want to post or [tab]
guest
You may want to rate the tab now too:
select rating
Please do not post tabs as comments. Select "correction" instead!