Oops, an error
Loading. Please wait.

Asylum Tab

ver4
ver4

Intro

Whole song

Interactive

More versions @911Tabs.com
1,625 views 3 this week
no commentswrite comment
1 2 3 4 5
accurate
x 3
Autoscroll
+/-
esc
set tempo
stop
Contributor
Difficulty
Tuning
intermediate
D# G# C# F# A# D#
Hey! There's an official Ultimate Guitar app which is ideal
for learning songs when you're away from computer. Get the app
WARNING: You are trying to view
                                    content from Ultimate-Guitar.com
                                    in an unauthorized application,
                                    which is prohibited.

                                    Please use an official Ultimate
                                    Guitar Tabs application for iPhone,
                                    iPad or Android to access legitimate
                                    chords, guitar, bass, and drum tabs
                                    from Ultimate-Guitar.com database.

                                    Type "ultimate guitar tabs" in Apple
                                    App Store's or Android Market's
                                    search to find the application.
Asylum
Disturbed
Asylum (2010)

Asylum: written by David Draiman, Dan Donegan, John Moyer, and Mike Wengren

NOTE:  If you want to play with two guitars, just play GTR III for GTR II.

GTR I - Eb Tuning (eb,Bb,Gb,Db,Ab,Eb)
GTR II - Eb Tuning (eb,Bb,Gb,Db,Ab,Eb)
GTR III - Eb Tuning (eb,Bb,Gb,Db,Ab,Eb)

Intro

   GTR I,II
eb|-------------------------------------------------|
Bb|-------------------------------------------------|
Gb|-------------------------------------------------|
Db|--2----------------------------------------------|
Ab|--2----------------------------------------------|
Eb|--0----------------------------------------------|
  |
  |GTR III
eb|-------------------------------------------------|
Bb|-------------------------------------------------|
Gb|--9~---------------------------------------------|
Db|-------------------------------------------------|
Ab|-------------------------------------------------|
Eb|-------------------------------------------------|

   GTR I,II
eb|-------------------------------------------------|
Bb|-------------------------------------------------|
Gb|-------------------------------------------------|
Db|-------------------------------------------------|
Ab|--------------------------------------5--5--5--5-|
Eb|--------------------------------------3--3--3--3-|
                                         .  .  .  .

   GTR I,II
eb|-------------------------------------------------|
Bb|-------------------------------------------------|
Gb|-------------------------------------------------|
Db|--2----------------------------------------------|
Ab|--2----------------------------------------------|
Eb|--0----------------------------------------------|

   GTR I,II
eb|-------------------------------------------------|
Bb|-------------------------------------------------|
Gb|-------------------------------------------------|
Db|-------------------------------------------------|
Ab|--2--2-----2--------2--2-----2-------12\---------|
Eb|--0--0-----0--------0--0-----0-------12\---------|
     .  .     .        .  .     .            

Main Riff

   GTR I,II
eb|-------------------------------------------------|
Bb|-------------------------------------------------|
Gb|-------------------------------------------------|
Db|--9-------------10-------------------------------|
Ab|--7--------------8--------7--------8--------8\-5-|
Eb|-----0--0--0--0-----0--0--5--0--0--6--0--0--6\-3-|
  |     .  .  .  .     .  .     .  .     .  .
  |GTR III
eb|-------------------------------------------------|
Bb|-------------------13-12-------------------------|
Gb|--9-------------12----------------11-------12----|
Db|-------------------------------------------------|
Ab|-------------------------------------------------|
Eb|-------------------------------------------------|

   GTR I,II
eb|-------------------------------------------------|
Bb|-------------------------------------------------|
Gb|-------------------------------------------------|
Db|--9-------10-------------------------------------|
Ab|--7--------8--------7--------8--------5--5--5--5-|
Eb|-----0--0-----0--0--5--0--0--6--0--0--3--3--3--3-|
  |     .  .     .  .     .  .     .  .      
  |GTR III
eb|-------------------------------------------------|
Bb|-------------------------------------------------|
Gb|--9--------9-------------------------------------|
Db|--------------------9--------9-------10-----9----|
Ab|-------------------------------------------------|
Eb|-------------------------------------------------|

   GTR I,II
eb|-------------------------------------------------|
Bb|-------------------------------------------------|
Gb|-------------------------------------------------|
Db|--9-------------10-------------------------------|
Ab|--7--------------8--------7--------8--------8\-5-|
Eb|-----0--0--0--0-----0--0--5--0--0--6--0--0--6\-3-|
  |     .  .  .  .     .  .     .  .     .  .
  |GTR III
eb|-------------------------------------------------|
Bb|-------------------------------------------------|
Gb|-------------------------------------------------|
Db|-10-------10--------9--------9-------------------|
Ab|-------------------------------------10----------|
Eb|-------------------------------------------------|

   GTR I,II
eb|-------------------------------------------------|
Bb|-------------------------------------------------|
Gb|-------------------------------------------------|
Db|--9-------10-------------------------------------|
Ab|--7--------8--------7--------8-------10-10-10-10-|
Eb|-----0--0-----0--0--5--0--0--6--0--0--8--8--8--8-|
  |     .  .     .  .     .  .     .  .      
  |GTR III
eb|----------------------------17-16----17-16----19-|
Bb|----------------------------------17-------17----|
Gb|-11-------11-------14----------------------------|
Db|-------------------------------------------------|
Ab|-------------------------------------------------|
Eb|-------------------------------------------------|

   GTR I,II
eb|-------------------------------------------------|
Bb|-------------------------------------------------|
Gb|-------------------------------------------------|
Db|--9-------------10-------------------------------|
Ab|--7--------------8--------7--------8--------8\-5-|
Eb|-----0--0--0--0-----0--0--5--0--0--6--0--0--6\-3-|
  |     .  .  .  .     .  .     .  .     .  .
  |GTR III
eb|-------------------------------------------------|
Bb|-17~---------------------------------------------|
Gb|-------------------------------------------------|
Db|-------------------------------------------------|
Ab|-------------------------------------------------|
Eb|-------------------------------------------------|

   GTR I,II
eb|-------------------------------------------------|
Bb|-------------------------------------------------|
Gb|-------------------------------------------------|
Db|--9-------10-------------------------------------|
Ab|--7--------8--------7--------8--------5--5--5--5-|
Eb|-----0--0-----0--0--5--0--0--6--0--0--3--3--3--3-|
        .  .     .  .     .  .     .  .      

   GTR I,II
eb|-------------------------------------------------|
Bb|-------------------------------------------------|
Gb|-------------------------------------------------|
Db|--9-------------10-------------------------------|
Ab|--7--------------8--------7--------8--------8\-5-|
Eb|-----0--0--0--0-----0--0--5--0--0--6--0--0--6\-3-|
        .  .  .  .     .  .     .  .     .  .

   GTR I,II
eb|-------------------------------------------------|
Bb|-------------------------------------------------|
Gb|-------------------------------------------------|
Db|--9-------10-------------------------------------|
Ab|--7--------8--------7--------8-------10-10-10-10-|
Eb|-----0--0-----0--0--5--0--0--6--0--0--8--8--8--8-|
        .  .     .  .     .  .     .  .      

Verse

   GTR I,II
eb|-------------------------------------------------|
Bb|-------------------------------------------------|
Gb|-------------------------------------------------|
Db|-------------------------------------------------|
Ab|--7--------------8-------------------------------|
Eb|-----0--0--0--0-----0--0--5--0--0--6--0--0--6\-3-|
        .  .  .  .     .  .     .  .     .  .

   GTR I,II
eb|-------------------------------------------------|
Bb|-------------------------------------------------|
Gb|-------------------------------------------------|
Db|-------------------------------------------------|
Ab|--7--------8-------------------------------------|
Eb|-----0--0-----0--0--5--0--0--6--0--0--3--3--3--3-|
        .  .     .  .     .  .     .  .      

   GTR I,II
eb|-------------------------------------------------|
Bb|-------------------------------------------------|
Gb|-------------------------------------------------|
Db|-------------------------------------------------|
Ab|--7--------------8-------------------------------|
Eb|-----0--0--0--0-----0--0--5--0--0--6--0--0--6\-3-|
        .  .  .  .     .  .     .  .     .  .

   GTR I,II
eb|-------------------------------------------------|
Bb|-------------------------------------------------|
Gb|-------------------------------------------------|
Db|-------------------------------------------------|
Ab|--7--------8-------------------------10-10-10-10-|
Eb|-----0--0-----0--0--5--0--0--6--0--0--8--8--8--8-|
        .  .     .  .     .  .     .  .      

   GTR I,II
eb|-------------------------------------------------|
Bb|-------------------------------------------------|
Gb|-------------------------------------------------|
Db|--9-------------10-------------------------------|
Ab|--7--------------8--------7--------8--------8\-5-|
Eb|-----0--0--0--0-----0--0--5--0--0--6--0--0--6\-3-|
        .  .  .  .     .  .     .  .     .  .

   GTR I,II
eb|-------------------------------------------------|
Bb|-------------------------------------------------|
Gb|-------------------------------------------------|
Db|--9-------10-------------------------------------|
Ab|--7--------8--------7--------8--------5--5--5--5-|
Eb|-----0--0-----0--0--5--0--0--6--0--0--3--3--3--3-|
        .  .     .  .     .  .     .  .      

   GTR I,II
eb|-------------------------------------------------|
Bb|-------------------------------------------------|
Gb|-------------------------------------------------|
Db|--9-------------10-------------------------------|
Ab|--7--------------8--------7--------8--------8\-5-|
Eb|-----0--0--0--0-----0--0--5--0--0--6--0--0--6\-3-|
        .  .  .  .     .  .     .  .     .  .

   GTR I,II
eb|-------------------------------------------------|
Bb|-------------------------------------------------|
Gb|-------------------------------------------------|
Db|--9-------10-------------------------------------|
Ab|--7--------8--------7--------8-------10-10-10-10-|
Eb|-----0--0-----0--0--5--0--0--6--0--0--8--8--8--8-|
        .  .     .  .     .  .     .  .      

Pre Chorus

   GTR I,II
eb|-------------------------------------------------|
Bb|-------------------------------------------------|
Gb|-------------------------------------------------|
Db|-------------------------------------------------|
Ab|--9-----9--9--9--4--4--4--2-----2--2--2--5--5--5-|
Eb|--7-----7--7--7--2--2--2--0-----0--0--0--3--3--3-|

   GTR I,II
eb|-------------------------------------------------|
Bb|-------------------------------------------------|
Gb|-------------------------------------------------|
Db|-------------------------------------------------|
Ab|--9--9--9--4--4--4--2--2--2--5--5--5--7--7--7--7-|
Eb|--7--7--7--2--2--2--0--0--0--3--3--3--5--5--5--5-|

   GTR I,II
eb|-------------------------------------------------|
Bb|-------------------------------------------------|
Gb|-------------------------------------------------|
Db|-------------------------------------------------|
Ab|--9-----9--9--9--4--4--4--2-----2--2--2--5--5--5-|
Eb|--7-----7--7--7--2--2--2--0-----0--0--0--3--3--3-|
  |
  |GTR III
eb|-------------------------------------------------|
Bb|-------------------------------------------------|
Gb|-------------------------------------------------|
Db|--9--9--9--9--9----------------------------------|
Ab|-----------------9--9--9--7--7--7--7--7-10-10-10-|
Eb|-------------------------------------------------|

   GTR I,II
eb|-------------------------------------------------|
Bb|-------------------------------------------------|
Gb|-------------------------------------------------|
Db|-------------------------------------------------|
Ab|--9--9--9--4--4--4--2--2--2--5--5--5--7--7--7--7-|
Eb|--7--7--7--2--2--2--0--0--0--3--3--3--5--5--5--5-|
  |
  |GTR III
eb|-------------------------------------------------|
Bb|-------------------------------------------------|
Gb|-------------------------------------------------|
Db|--9--9--9-----------------------------7--7--7--7-|
Ab|-----------9--9--9--7--7--7-10-10-10-------------|
Eb|-------------------------------------------------|

Main Riff

   GTR I,II
eb|-------------------------------------------------|
Bb|-------------------------------------------------|
Gb|-------------------------------------------------|
Db|--9-------------10-------------------------------|
Ab|--7--------------8--------7--------8--------8\-5-|
Eb|-----0--0--0--0-----0--0--5--0--0--6--0--0--6\-3-|
  |     .  .  .  .     .  .     .  .     .  .
  |GTR III
eb|-------------------------------------------------|
Bb|-------------------13-12-------------------------|
Gb|--9-------------12----------------11-------12----|
Db|-------------------------------------------------|
Ab|-------------------------------------------------|
Eb|-------------------------------------------------|

   GTR I,II
eb|-------------------------------------------------|
Bb|-------------------------------------------------|
Gb|-------------------------------------------------|
Db|--9-------10-------------------------------------|
Ab|--7--------8--------7--------8--------5--5--5--5-|
Eb|-----0--0-----0--0--5--0--0--6--0--0--3--3--3--3-|
  |     .  .     .  .     .  .     .  .      
  |GTR III
eb|-------------------------------------------------|
Bb|-------------------------------------------------|
Gb|--9--------9-------------------------------------|
Db|--------------------9--------9-------10-----9----|
Ab|-------------------------------------------------|
Eb|-------------------------------------------------|

   GTR I,II
eb|-------------------------------------------------|
Bb|-------------------------------------------------|
Gb|-------------------------------------------------|
Db|--9-------------10-------------------------------|
Ab|--7--------------8--------7--------8--------8\-5-|
Eb|-----0--0--0--0-----0--0--5--0--0--6--0--0--6\-3-|
  |     .  .  .  .     .  .     .  .     .  .
  |GTR III
eb|-------------------------------------------------|
Bb|-------------------------------------------------|
Gb|-------------------------------------------------|
Db|-10-------10--------9--------9-------------------|
Ab|-------------------------------------10----------|
Eb|-------------------------------------------------|

   GTR I,II
eb|-------------------------------------------------|
Bb|-------------------------------------------------|
Gb|-------------------------------------------------|
Db|--9-------10-------------------------------------|
Ab|--7--------8--------7--------8-------10-10-10-10-|
Eb|-----0--0-----0--0--5--0--0--6--0--0--8--8--8--8-|
  |     .  .     .  .     .  .     .  .      
  |GTR III
eb|----------------------------17-16----17-16----19-|
Bb|----------------------------------17-------17----|
Gb|-11-------11-------14----------------------------|
Db|-------------------------------------------------|
Ab|-------------------------------------------------|
Eb|-------------------------------------------------|

Verse 2

   GTR I,II
eb|-------------------------------------------------|
Bb|-------------------------------------------------|
Gb|-------------------------------------------------|
Db|-------------------------------------------------|
Ab|--7--------------8-------------------------------|
Eb|-----0--0--0--0-----0--0--5--0--0--6--0--0--6\-3-|
  |     .  .  .  .     .  .     .  .     .  .
  |GTR III
eb|-------------------------------------------------|
Bb|-17~---------------------------------------------|
Gb|-------------------------------------------------|
Db|-------------------------------------------------|
Ab|-------------------------------------------------|
Eb|-------------------------------------------------|

   GTR I,II
eb|-------------------------------------------------|
Bb|-------------------------------------------------|
Gb|-------------------------------------------------|
Db|-------------------------------------------------|
Ab|--7--------8-------------------------------------|
Eb|-----0--0-----0--0--5--0--0--6--0--0--3--3--3--3-|
        .  .     .  .     .  .     .  .      

   GTR I,II
eb|-------------------------------------------------|
Bb|-------------------------------------------------|
Gb|-------------------------------------------------|
Db|--9-------------10-------------------------------|
Ab|--7--------------8--------7--------8--------8\-5-|
Eb|-----0--0--0--0-----0--0--5--0--0--6--0--0--6\-3-|
        .  .  .  .     .  .     .  .     .  .

   GTR I,II
eb|-------------------------------------------------|
Bb|-------------------------------------------------|
Gb|-------------------------------------------------|
Db|--9-------10-------------------------------------|
Ab|--7--------8--------7--------8-------10-10-10-10-|
Eb|-----0--0-----0--0--5--0--0--6--0--0--8--8--8--8-|
        .  .     .  .     .  .     .  .      

Pre Chorus 2

   GTR I,II
eb|-------------------------------------------------|
Bb|-------------------------------------------------|
Gb|-------------------------------------------------|
Db|-------------------------------------------------|
Ab|--9-----9--9--9--4--4--4--2-----2--2--2--5--5--5-|
Eb|--7-----7--7--7--2--2--2--0-----0--0--0--3--3--3-|

   GTR I,II
eb|-------------------------------------------------|
Bb|-------------------------------------------------|
Gb|-------------------------------------------------|
Db|-------------------------------------------------|
Ab|--9--9--9--4--4--4--2--2--2--5--5--5--7--7--7--7-|
Eb|--7--7--7--2--2--2--0--0--0--3--3--3--5--5--5--5-|

   GTR I,II
eb|-------------------------------------------------|
Bb|-------------------------------------------------|
Gb|-------------------------------------------------|
Db|-------------------------------------------------|
Ab|--9-----9--9--9--4--4--4--2-----2--2--2--5--5--5-|
Eb|--7-----7--7--7--2--2--2--0-----0--0--0--3--3--3-|
  |
  |GTR III
eb|-------------------------------------------------|
Bb|-------------------------------------------------|
Gb|-------------------------------------------------|
Db|--9--9--9--9--9----------------------------------|
Ab|-----------------9--9--9--7--7--7--7--7-10-10-10-|
Eb|-------------------------------------------------|

   GTR I,II
eb|-------------------------------------------------|
Bb|-------------------------------------------------|
Gb|-------------------------------------------------|
Db|--------------------------------------9~---------|
Ab|--9--9--9--4--4--4--2--2--2--5--5--5-------------|
Eb|--7--7--7--2--2--2--0--0--0--3--3--3-------------|
  |
  |GTR III
eb|-------------------------------------------------|
Bb|-------------------------------------------------|
Gb|-------------------------------------------------|
Db|--9--9--9-----------------------------7--7--7--7-|
Ab|-----------9--9--9--7--7--7-10-10-10-------------|
Eb|-------------------------------------------------|

Chorus

   GTR I,II
eb|--------------------------------------------------|
Bb|--------------------------------------------------|
Gb|--9-----------------------------------------------|
Db|--9--------------------3-----2--------------------|
Ab|--7--------------------3-----2--------------------|
Eb|--------0--0--0--0--0--1-----0--0--0--0--0--0-0-0-|
           .  .  .  .  .           .  .  .  .  . . .

   GTR I,II
eb|---------------------------------------------------|
Bb|---------------------------------------------------|
Gb|-----3--------2------------------------------------|
Db|-----3--------2--------3-----2---------------------|
Ab|-----1--------0--------3-----2---------------------|
Eb|--0-----0--0-----0--0--1-----0--0-0-0--0--0--0-0-0-|
     .     .  .     .  .           . . .  .  .  . . .

   GTR I,II
eb|--------------------------------------------------|
Bb|--------------------------------------------------|
Gb|--9-----------------------------------------------|
Db|--9--------------------3-----2--------------------|
Ab|--7--------------------3-----2--------------------|
Eb|--------0--0--0--0--0--1-----0--0--0--0--0--0-0-0-|
           .  .  .  .  .           .  .  .  .  . . .

   GTR I,II
eb|---------------------------------------------------|
Bb|---------------------------------------------------|
Gb|-----3--------2------------------------------------|
Db|-----3--------2--------3-----2---------5---5---5---|
Ab|-----1--------0--------3-----2---------5---5---5---|
Eb|--0-----0--0-----0--0--1-----0--0-0-0--3---3---3---|
     .     .  .     .  .           . . .  .   .   .  

   GTR I,II
eb|--------------------------------------------------|
Bb|--------------------------------------------------|
Gb|--9-----------------------------------------------|
Db|--9--------------------3-----2--------------------|
Ab|--7--------------------3-----2--------------------|
Eb|--------0--0--0--0--0--1-----0--0--0--0--0--0-0-0-|
           .  .  .  .  .           .  .  .  .  . . .

   GTR I,II
eb|---------------------------------------------------|
Bb|---------------------------------------------------|
Gb|-----3--------2------------------------------------|
Db|-----3--------2--------3-----2---------------------|
Ab|-----1--------0--------3-----2---------------------|
Eb|--0-----0--0-----0--0--1-----0--0-0-0--0--0--0-0-0-|
     .     .  .     .  .           . . .  .  .  . . .

   GTR I,II
eb|-------------------------------------------------|
Bb|-------------------------------------------------|
Gb|-------------------------------------------------|
Db|--7--------7--------7--------7--------7-----7--7-|
Ab|--7--------7--x--x--7--------7--------7-----7--7-|
Eb|--5--------5--x--x--5--------5--------5-----5--5-|

   GTR I,II
eb|-------------------------------------------------|
Bb|-------------------------------------------------|
Gb|-------------------------------------------------|
Db|----10-----9-----------9----10p-9-----9p-7-------|
Ab|----------------10----------------10-------10p-9-|
Eb|--7-----7-----7-----7-----7----------------------|
     .     .     .     .     .        .

Post Chorus

   GTR I,II
eb|-------------------------------------------------|
Bb|-------------------------------------------------|
Gb|-------------------------------------------------|
Db|--9-------------10-------------------------------|
Ab|--7--------------8--------7--------8--------8\-5-|
Eb|-----0--0--0--0-----0--0--5--0--0--6--0--0--6\-3-|
        .  .  .  .     .  .     .  .     .  .

   GTR I,II
eb|-------------------------------------------------|
Bb|-------------------------------------------------|
Gb|-------------------------------------------------|
Db|--9-------10-------------------------------------|
Ab|--7--------8--------7--------8--------5--5--5--5-|
Eb|-----0--0-----0--0--5--0--0--6--0--0--3--3--3--3-|
        .  .     .  .     .  .     .  .      

   GTR I,II
eb|-------------------------------------------------|
Bb|-------------------------------------------------|
Gb|-------------------------------------------------|
Db|--9-------------10-------------------------------|
Ab|--7--------------8--------7--------8--------8\-5-|
Eb|-----0--0--0--0-----0--0--5--0--0--6--0--0--6\-3-|
  |     .  .  .  .     .  .     .  .     .  .
  |GTR III
eb|-------------------------------------------------|
Bb|-------------------------------------------------|
Gb|-------------------------------------------------|
Db|-14-------------15-------------------------------|
Ab|-------------------------12-------13-------13\10-|
Eb|-------------------------------------------------|

   GTR I,II
eb|-------------------------------------------------|
Bb|-------------------------------------------------|
Gb|-------------------------------------------------|
Db|--9-------10-------------------------------------|
Ab|--7--------8--------7--------8-------10-10-10-10-|
Eb|-----0--0-----0--0--5--0--0--6--0--0--8--8--8--8-|
  |     .  .     .  .     .  .     .  .      
  |GTR III
eb|-------------------------------------------------|
Bb|-------------------------------------------------|
Gb|-------------------------------------------------|
Db|-14-------15-------------------------------------|
Ab|-------------------12-------13-------15-15-15-15-|
Eb|-------------------------------------------------|

Verse 3

   GTR I,II
eb|-------------|-------------|-------------|-------------|
Bb|-------------|-------------|-------------|-------------|
Gb|-------------|-------------|-------------|-------------|
Db|-------------|-------------|-------------|-------------|
Ab|-------------|-------------|-------------|-------------|
Eb|-------------|-------------|-------------|-------------|

   GTR I,II
eb|-------------------------------------------------|
Bb|-------------------------------------------------|
Gb|-------------------------------------------------|
Db|--9-------------10-------------------------------|
Ab|--7--------------8--------7--------8--------8\-5-|
Eb|-----0--0--0--0-----0--0--5--0--0--6--0--0--6\-3-|
        .  .  .  .     .  .     .  .     .  .

   GTR I,II
eb|-------------------------------------------------|
Bb|-------------------------------------------------|
Gb|-------------------------------------------------|
Db|--9-------10-------------------------------------|
Ab|--7--------8--------7--------8--------5--5--5--5-|
Eb|-----0--0-----0--0--5--0--0--6--0--0--3--3--3--3-|
        .  .     .  .     .  .     .  .      

   GTR I,II
eb|-------------------------------------------------|
Bb|-------------------------------------------------|
Gb|-------------------------------------------------|
Db|--9-------------10-------------------------------|
Ab|--7--------------8--------7--------8--------8\-5-|
Eb|-----0--0--0--0-----0--0--5--0--0--6--0--0--6\-3-|
        .  .  .  .     .  .     .  .     .  .

   GTR I,II
eb|-------------------------------------------------|
Bb|-------------------------------------------------|
Gb|-------------------------------------------------|
Db|--9-------10-------------------------------------|
Ab|--7--------8--------7--------8-------10-10-10-10-|
Eb|-----0--0-----0--0--5--0--0--6--0--0--8--8--8--8-|
        .  .     .  .     .  .     .  .      

Pre Chorus 2  - 1x
Chorus        - 1x

Bridge

   GTR I,II
eb|-------------------------------------------------|
Bb|-------------------------------------------------|
Gb|-------------------------------------------------|
Db|--2----------------------------------------------|
Ab|--2----------------------------------------------|
Eb|--0----------------------------------------------|

   GTR I,II
eb|-------------------------------------------------|
Bb|-------------------------------------------------|
Gb|-------------------------------------------------|
Db|--2----------------------------------10-10--7--7-|
Ab|--2-----------------------------------8--8--5--5-|
Eb|--0----------------------------------------------|
  |
  |GTR III
eb|-------------------------------------------------|
Bb|--------------------3--3--3--6--6--6-------------|
Gb|-----------4--4--4-------------------------------|
Db|--2--2--2----------------------------------------|
Ab|-------------------------------------------------|
Eb|-------------------------------------------------|
     .  .  .  .  .  .  .  .  .  .  .  .

   GTR I,II
eb|-------------------------------------------------|
Bb|-------------------------------------------------|
Gb|-------------------------------------------------|
Db|--------------------------7----------------------|
Ab|--------------------------5----------------------|
Eb|-------------------------------------------------|
  |
  |GTR III
eb|-------------------------------------------------|
Bb|--------------------3--6--------------------3--3-|
Gb|-----------4--4--4-----------------4--4--4-------|
Db|--2--2--2-----------------2--2--2----------------|
Ab|-------------------------------------------------|
Eb|-------------------------------------------------|
     .  .  .  .  .  .  .  .  .  .  .     

   GTR I,II
eb|-------------------------------------------------|
Bb|-------------------------------------------------|
Gb|-------------------------------------------------|
Db|-------------10-10--7--7--------------------7----|
Ab|--------------8--8--5--5--------------------5----|
Eb|-------------------------------------------------|
  |
  |GTR III
eb|-------------------------------------------------|
Bb|--3--6--6--6-------------------------------------|
Gb|-----------------------------------4--4--4-------|
Db|--------------------------2--2--2----------------|
Ab|-------------------------------------------------|
Eb|-------------------------------------------------|

   GTR I,II
eb|-------------------------------------------------|
Bb|-------------------------------------------------|
Gb|-----------4--4--4--7--7--7-10-10-10-10-10--7--7-|
Db|--2--2--2--4--4--4--7--7--7-10-10-10-10-10--7--7-|
Ab|--2--2--2--2--2--2--5--5--5--8--8--8--8--8--5--5-|
Eb|--0--0--0----------------------------------------|

   GTR I,II
eb|-------------------------------------------------|
Bb|-------------------------------------------------|
Gb|-----------4--4--4--7-10-----------4--4--4--7--7-|
Db|--2--2--2--4--4--4--7-10--2--2--2--4--4--4--7--7-|
Ab|--2--2--2--2--2--2--5--8--2--2--2--2--2--2--5--5-|
Eb|--0--0--0-----------------0--0--0----------------|

   GTR I,II
eb|-------------------------------------------------|
Bb|-------------------------------------------------|
Gb|--7-10-10-10-10-10--7--7-----------4--4--4--7--7-|
Db|--7-10-10-10-10-10--7--7--2--2--2--4--4--4--7--7-|
Ab|--5--8--8--8--8--8--5--5--2--2--2--2--2--2--5--5-|
Eb|--------------------------0--0--0----------------|

   GTR I,II
eb|-------------------------------------------------|
Bb|-------------------------------------------------|
Gb|-----------4--4--4--7--7--7-10-10-10-10-10--7--7-|
Db|--2--2--2--4--4--4--7--7--7-10-10-10-10-10--7--7-|
Ab|--2--2--2--2--2--2--5--5--5--8--8--8--8--8--5--5-|
Eb|--0--0--0----------------------------------------|

   GTR I,II
eb|-------------------------------------------------|
Bb|-------------------------------------------------|
Gb|-----------4--4--4--7-10-----------4--4--4--7--7-|
Db|--2--2--2--4--4--4--7-10--2--2--2--4--4--4--7--7-|
Ab|--2--2--2--2--2--2--5--8--2--2--2--2--2--2--5--5-|
Eb|--0--0--0-----------------0--0--0----------------|

   GTR I,II
eb|-------------------------------------------------|
Bb|-------------------------------------------------|
Gb|--7-10-10-10-10-10--7--7-----------4--4--4--7--7-|
Db|--7-10-10-10-10-10--7--7--2--2--2--4--4--4--7--7-|
Ab|--5--8--8--8--8--8--5--5--2--2--2--2--2--2--5--5-|
Eb|--------------------------0--0--0----------------|

   GTR I,II
eb|-------------------------------------------------|
Bb|-------------------------------------------------|
Gb|-------------------------------------------------|
Db|-10-------10--------9--------9--------9----12----|
Ab|-10-------10-10-10-10-------10-10-10-10----12----|
Eb|--8--------8--8--8--7--------7--7--7--7--0-10--0-|
                 .  .              .  .     .     .

   GTR I,II
eb|-------------------------------------------------|
Bb|-------------------------------------------------|
Gb|-------------------------------------------------|
Db|-------------------------------------------------|
Ab|--7--------7--------7--------7--------7-----7----|
Eb|--5--0--0--5--0--0--5--0--0--5--0--0--5--0--5--0-|
        .  .     .  .     .  .     .  .     .     . 

   GTR I,II
eb|-------------------------------------------------|
Bb|-------------------------------------------------|
Gb|-------------------------------------------------|
Db|-10-------10--------9--------9--------9----12----|
Ab|-10-------10-10-10-10-------10-10-10-10----12----|
Eb|--8--------8--8--8--7--------7--7--7--7--0-10--0-|
                 .  .              .  .     .     .

   GTR I,II
eb|-------------------------------------------------|
Bb|-------------------------------------------------|
Gb|-------------------------------------------------|
Db|-------------------------------------------------|
Ab|--2--------2--------2----------------------------|
Eb|--0--0--0--0--0--0--0--0--0-(2)(3)(4)(5)(6)(7)(8)|
        .  .     .  .     .  .                      

   GTR I,II
eb|-------------------------------------------------|
Bb|-------------------------------------------------|
Gb|-------------------------------------------------|
Db|-10-------10--------9--------9--------9----12----|
Ab|-10-------10-10-10-10-------10-10-10-10----12----|
Eb|--8--------8--8--8--7--------7--7--7--7--0-10--0-|
                 .  .              .  .     .     .

   GTR I,II
eb|-------------------------------------------------|
Bb|-------------------------------------------------|
Gb|-------------------------------------------------|
Db|-------------------------------------------------|
Ab|--7--------7--------7--------7--------7-----7----|
Eb|--5--0--0--5--0--0--5--0--0--5--0--0--5--0--5--0-|
        .  .     .  .     .  .     .  .     .     . 

   GTR I,II
eb|-------------------------------------------------|
Bb|-------------------------------------------------|
Gb|-------------------------------------------------|
Db|--9--------9--------9--------9--9--9--9--9--9--9-|
Ab|--9--------9--x--x--9--------9--9--9--9--9--9--9-|
Eb|--7--------7--x--x--7--------7--7--7--7--7--7--7-|

   GTR I,II
eb|-------------------------------------------------|
Bb|-------------------------------------------------|
Gb|-------------------------------------------------|
Db|--9\-8--8--8--8--8--8--8--8\-5--5--5--5--5--5--5-|
Ab|--9\-8--8--8--8--8--8--8--8\-5--5--5--5--5--5--5-|
Eb|--7\-6--6--6--6--6--6--6--6\-3--3--3--3--3--3--3-|

Chorus    - 1x

Outro

   GTR I,II
eb|-------------------------------------------------|
Bb|-------------------------------------------------|
Gb|-------------------------------------------------|
Db|--9-------------10-------------------------------|
Ab|--7--------------8--------7--------8--------8\-5-|
Eb|-----0--0--0--0-----0--0--5--0--0--6--0--0--6\-3-|
  |     .  .  .  .     .  .     .  .     .  .
  |GTR III
eb|-------------------------------------------------|
Bb|-------------------13-12-------------------------|
Gb|--9-------------12----------------11-------12----|
Db|-------------------------------------------------|
Ab|-------------------------------------------------|
Eb|-------------------------------------------------|

   GTR I,II
eb|-------------------------------------------------|
Bb|-------------------------------------------------|
Gb|-------------------------------------------------|
Db|--9-------------------------10p-9-----9p-7-------|
Ab|--7-------------------------------10-------10p-9-|
Eb|-----0--0--0--0--0--0--0--0----------------------|
  |     .  .  .  .  .  .  .  .        .
  |GTR III
eb|-------------------------------------------------|
Bb|-------------------------------------------------|
Gb|--9--------9-------------------------------------|
Db|--------------------9~---------------------------|
Ab|-------------------------------------------------|
Eb|-------------------------------------------------|

   GTR I,II
eb|-------------------------------------------------|
Bb|-------------------------------------------------|
Gb|-------------------------------------------------|
Db|--9-------------10-------------------------------|
Ab|--7--------------8--------7--------8--------8\-5-|
Eb|-----0--0--0--0-----0--0--5--0--0--6--0--0--6\-3-|
  |     .  .  .  .     .  .     .  .     .  .
  |GTR III
eb|-------------------------------------------------|
Bb|-------------------13-12-------------------------|
Gb|--9-------------12----------------11-------12----|
Db|-------------------------------------------------|
Ab|-------------------------------------------------|
Eb|-------------------------------------------------|

   GTR I,II
eb|-------------------------------------------------|
Bb|-------------------------------------------------|
Gb|-------------------------------------------------|
Db|--9-------------------------10p-9-----9p-7-------|
Ab|--7-------------------------------10-------10p-9-|
Eb|-----0--0--0--0--0--0--0--0----------------------|
  |     .  .  .  .  .  .  .  .        .
  |GTR III
eb|-------------------------------------------------|
Bb|-------------------------------------------------|
Gb|--9--------9-------------------------------------|
Db|--------------------9~---------------------------|
Ab|-------------------------------------------------|
Eb|-------------------------------------------------|

   GTR I,II
eb|-------------------------------------------------|
Bb|-------------------------------------------------|
Gb|-------------------------------------------------|
Db|--9-------------10-------------------------------|
Ab|--7--------------8--------7--------8--------8\-5-|
Eb|-----0--0--0--0-----0--0--5--0--0--6--0--0--6\-3-|
  |     .  .  .  .     .  .     .  .     .  .
  |GTR III
eb|-------------------------------------------------|
Bb|-------------------13-12-------------------------|
Gb|--9-------------12----------------11-------12----|
Db|-------------------------------------------------|
Ab|-------------------------------------------------|
Eb|-------------------------------------------------|

   GTR I,II
eb|-------------------------------------------------|
Bb|-------------------------------------------------|
Gb|-------------------------------------------------|
Db|--9-------------------------10p-9-----9p-7-------|
Ab|--7-------------------------------10-------10p-9-|
Eb|-----0--0--0--0--0--0--0--0----------------------|
  |     .  .  .  .  .  .  .  .        .
  |GTR III
eb|-------------------------------------------------|
Bb|-------------------------------------------------|
Gb|--9--------9-------------------------------------|
Db|--------------------9~---------------------------|
Ab|-------------------------------------------------|
Eb|-------------------------------------------------|

   GTR I,II
eb|-------------------------------------------------|
Bb|-------------------------------------------------|
Gb|-------------------------------------------------|
Db|--9-------------10-------------------------------|
Ab|--7--------------8--------7--------8--------8\-5-|
Eb|-----0--0--0--0-----0--0--5--0--0--6--0--0--6\-3-|
  |     .  .  .  .     .  .     .  .     .  .
  |GTR III
eb|-------------------------------------------------|
Bb|-------------------13-12-------------------------|
Gb|--9-------------12----------------11-------12----|
Db|-------------------------------------------------|
Ab|-------------------------------------------------|
Eb|-------------------------------------------------|

   GTR I,II
eb|-------------------------------------------------|
Bb|-------------------------------------------------|
Gb|-------------------------------------------------|
Db|--9-------------------------10p-9-----9p-7-------|
Ab|--7-------------------------------10-------10p-9-|
Eb|-----0--0--0--0--0--0--0--0----------------------|
  |     .  .  .  .  .  .  .  .        .
  |GTR III
eb|-------------------------------------------------|
Bb|-------------------------------------------------|
Gb|--9--------9-------------------------------------|
Db|--------------------9~---------------------------|
Ab|-------------------------------------------------|
Eb|-------------------------------------------------|

   GTR I,II
eb|-------------------------------------------------|
Bb|-------------------------------------------------|
Gb|--9\---------------------------------------------|
Db|--9\---------------------------------------------|
Ab|--7\---------------------------------------------|
Eb|-------------------------------------------------|
  |
  | PH.
eb|-------------------------------------------------|
Bb|-------------------------------------------------|
Gb|--9~---------------------------------------------|
Db|-------------------------------------------------|
Ab|-------------------------------------------------|
Eb|-------------------------------------------------|


| b  bend
| r  release bend
|trp triplet
|PH. pinch harmonic
|fbk feedback
| .  palm-mute
| /  slide up
| \  slide down
| h  hammer-on
| p  pull-off
| ~  vibrato
|(7) harmonic
| x  Mute note
===============================================================================

comments
We did not receive enough feedback on this tab! Please rate:
print report bad tab
1 2 3 4 5
I want to post or [tab]
guest
You may want to rate the tab now too:
select rating
Please do not post tabs as comments. Select "correction" instead!