Oops, an error
Loading. Please wait.

Avarice Tab

ver5
ver5

Whole song

Interactive

More versions @911Tabs.com
328 views 1 this week
no commentswrite comment
1 2 3 4 5
worth learning
x 1
Autoscroll
+/-
esc
set tempo
stop
Contributor
Difficulty
Tuning
intermediate
C G C F A D
Hey! There's an official Ultimate Guitar app which is ideal
for learning songs when you're away from computer. Get the app
WARNING: You are trying to view
                                    content from Ultimate-Guitar.com
                                    in an unauthorized application,
                                    which is prohibited.

                                    Please use an official Ultimate
                                    Guitar Tabs application for iPhone,
                                    iPad or Android to access legitimate
                                    chords, guitar, bass, and drum tabs
                                    from Ultimate-Guitar.com database.

                                    Type "ultimate guitar tabs" in Apple
                                    App Store's or Android Market's
                                    search to find the application.
Disturbed: Avarice

Transcribed by: Andrew Zara (disturbedfreak0520@yahoo.com)

Date last modified: June 9, 2007

PLEASE DO NOT COPY THIS TAB TO ANOTHER SITE
WITHOUT AUTHORS' PERMISSION. THANK YOU.

Tuning: Drop C (C,G,C,F,A,D)

 S  S S S S S S  S S S S S S  S S S    S S S  S S S S S S  S S S  S S S  S  
D||-------------------------------------|--------------------------------------|
A||-------------------------------------|--------------------------------------|
F||-------------------------------------|--------------------------------------|
C||-------------------------------------|--------------------------------------|
G||--5p-2-2-2-2-2-3p-2-2-2-2-2-3p-2-2-2-|--2-2-5p-2-2-2-2-2-3p-2-2-3p-2-2-3p-2-|
C||-------------------------------------|--------------------------------------|


  S  S S S S S S  S S S S S S  S S S    S S S  S S S S S S  S S S  S S S  S  
-------------------------------------|--------------------------------------|
-------------------------------------|--------------------------------------|
-------------------------------------|--------------------------------------|
-------------------------------------|--------------------------------------|
--5p-2-2-2-2-2-3p-2-2-2-2-2-3p-2-2-2-|--2-2-5p-2-2-2-2-2-3p-2-2-3p-2-2-3p-2-|
-------------------------------------|--------------------------------------|


  S  S S S S S S  S S S S S S  S S S    S S S  S S S S S S  S S S  S S S  S  
-------------------------------------|--------------------------------------|
-------------------------------------|--------------------------------------|
-------------------------------------|--------------------------------------|
-------------------------------------|--------------------------------------|
--5p-2-2-2-2-2-3p-2-2-2-2-2-3p-2-2-2-|--2-2-5p-2-2-2-2-2-3p-2-2-3p-2-2-3p-2-|
-------------------------------------|--------------------------------------|


  S  S S S S S S  S S S S S S  S S S    S S S  S S S S S S  S S S S E.   
-------------------------------------|----------------------------------|
-------------------------------------|----------------------------------|
-------------------------------------|----------------------------------|
-------------------------------------|----------------------------------|
--5p-2-2-2-2-2-3p-2-2-2-2-2-3p-2-2-2-|--2-2-5p-2-2-2-2-2-3p-2-2-2-3-----|
-------------------------------------|----------------------------------|


     S  S S S S S  S  S S S S S  S  S S S  
|-----------------------------------------|
|-----------------------------------------|
|*----------------------------------------|
|*--12p-9-9-9-9-9-10p-9-9-9-9-9-10p-9-9-9-|
|---12p-9-9-9-9-9-10p-9-9-9-9-9-10p-9-9-9-|
|---12p-9-9-9-9-9-10p-9-9-9-9-9-10p-9-9-9-|


  S S  S  S S S S S  S  S S  S  S S  S  S  
------------------------------------------|
------------------------------------------|
------------------------------------------|
--9-9-12p-9-9-9-9-9-10p-9-9-10p-9-9-10p-9-|
--9-9-12p-9-9-9-9-9-10p-9-9-10p-9-9-10p-9-|
--9-9-12p-9-9-9-9-9-10p-9-9-10p-9-9-10p-9-|


   S  S S S S S  S  S S S S S  S  S S S  
----------------------------------------|
----------------------------------------|
----------------------------------------|
--12p-9-9-9-9-9-10p-9-9-9-9-9-10p-9-9-9-|
--12p-9-9-9-9-9-10p-9-9-9-9-9-10p-9-9-9-|
--12p-9-9-9-9-9-10p-9-9-9-9-9-10p-9-9-9-|


  S S  S  S S S S S  S  S S  S  S S  S  S    
-------------------------------------------||
-------------------------------------------||
------------------------------------------*||
--9-9-12p-9-9-9-9-9-10p-9-9-10p-9-9-10p-9-*||
--9-9-12p-9-9-9-9-9-10p-9-9-10p-9-9-10p-9--||
--9-9-12p-9-9-9-9-9-10p-9-9-10p-9-9-10p-9--||


   PM PM PM PM PM PM   PM PM PM PM PM   PM PM  
   E  S  S  S  S  S  S S  S  S  S  S  S S  S   
----------------------------------------------|
----------------------------------------------|
----------------------------------------------|
----------------------------------------------|
--12--9--9--9--9--9----9--9--9--9--9----9--9--|
--12--9--9--9--9--9----9--9--9--9--9----9--9--|


  PM PM PM   PM PM PM PM  PMPM PM  PMPM PM  PMPM  
  S  S  S  S S  S  S  S   S S  S   S S  S   S S   
-------------------------------------------------|
-------------------------------------------------|
-------------------------------------------------|
-------------------------------------------------|
--9--9--9----9--9--9--9--10-9--9--10-9--9--10-9--|
--9--9--9----9--9--9--9--10-9--9--10-9--9--10-9--|


   PM PM PM PM PM PM   PM PM PM PM PM   PM PM  
   E  S  S  S  S  S  S S  S  S  S  S  S S  S   
----------------------------------------------|
----------------------------------------------|
----------------------------------------------|
----------------------------------------------|
--12--9--9--9--9--9----9--9--9--9--9----9--9--|
--12--9--9--9--9--9----9--9--9--9--9----9--9--|


  PM PM PM   PM PM PM PM  PMPM PM  PMPM PM  PMPM  
  S  S  S  S S  S  S  S   S S  S   S S  S   S S   
-------------------------------------------------|
-------------------------------------------------|
-------------------------------------------------|
-------------------------------------------------|
--9--9--9----9--9--9--9--10-9--9--10-9--9--10-9--|
--9--9--9----9--9--9--9--10-9--9--10-9--9--10-9--|


   E  S S S S S S S S S S S S S S    S S S S S S S S  S S S  S S S  S S  
----------------------------------|-------------------------------------|
----------------------------------|-------------------------------------|
----------------------------------|-------------------------------------|
--12------------------------------|-------------------------------------|
--12--9-9-9-9-9---9-9-9-9-9---9-9-|--9-9-9---9-9-9-9-10-9-9-10-9-9-10-9-|
--12--9-9-9-9-9---9-9-9-9-9---9-9-|--9-9-9---9-9-9-9-10-9-9-10-9-9-10-9-|


   E  S S S S S S S S S S S S S S    S S S S S S S S  S S S  S S S  S S  
----------------------------------|-------------------------------------|
----------------------------------|-------------------------------------|
----------------------------------|-------------------------------------|
--12------------------------------|-------------------------------------|
--12--9-9-9-9-9---9-9-9-9-9---9-9-|--9-9-9---9-9-9-9-10-9-9-10-9-9-10-9-|
--12--9-9-9-9-9---9-9-9-9-9---9-9-|--9-9-9---9-9-9-9-10-9-9-10-9-9-10-9-|


  E  E  E  E  E  E  E  E     E  E  E  E  E  E  E  E   
--------------------------|--------------------------|
--------------------------|--------------------------|
--------------------------|--------------------------|
--5--5--5--4--4--4--1--1--|--1--2--2--2--1--1--2--1--|
--5--5--5--4--4--4--1--1--|--1--2--2--2--1--1--2--1--|
--5--5--5--4--4--4--1--1--|--1--2--2--2--1--1--2--1--|


                                              PM PM PM PM PM  
  E  E  E  E  E  E  E  E     E  E  E  E  E  S S  S  S  S  S   
--------------------------|----------------------------------|
--------------------------|----------------------------------|
--------------------------|----------------------------------|
--5--5--5--4--4--4--1--1--|--1--4--4--4--1-------------------|
--5--5--5--4--4--4--1--1--|--1--4--4--4--1-------------------|
--5--5--5--4--4--4--1--1--|--1--4--4--4--1--0-0--0--0--0--0--|


  E  E  E  E  E  E  E  E     E  E  E  E  E  E  E  E   
--------------------------|--------------------------|
--------------------------|--------------------------|
--------------------------|--------------------------|
--5--5--5--4--4--4--1--1--|--1--2--2--2--1--1--2--1--|
--5--5--5--4--4--4--1--1--|--1--2--2--2--1--1--2--1--|
--5--5--5--4--4--4--1--1--|--1--2--2--2--1--1--2--1--|


                                              PM PM PM PM PM  
  E  E  E  E  E  E  E  E     E  E  E  E  E  S S  S  S  S  S   
--------------------------|----------------------------------|
--------------------------|----------------------------------|
--------------------------|----------------------------------|
--5--5--5--4--4--4--1--1--|--1--4--4--4--1-------------------|
--5--5--5--4--4--4--1--1--|--1--4--4--4--1-------------------|
--5--5--5--4--4--4--1--1--|--1--4--4--4--1--0-0--0--0--0--0--|


   S  S S S S S  S  S S S S S  S  S S S  
----------------------------------------|
----------------------------------------|
----------------------------------------|
--12p-9-9-9-9-9-10p-9-9-9-9-9-10p-9-9-9-|
--12p-9-9-9-9-9-10p-9-9-9-9-9-10p-9-9-9-|
--12p-9-9-9-9-9-10p-9-9-9-9-9-10p-9-9-9-|


  S S  S  S S S S S  S  S S  S  S S  S  S  
------------------------------------------|
------------------------------------------|
------------------------------------------|
--9-9-12p-9-9-9-9-9-10p-9-9-10p-9-9-10p-9-|
--9-9-12p-9-9-9-9-9-10p-9-9-10p-9-9-10p-9-|
--9-9-12p-9-9-9-9-9-10p-9-9-10p-9-9-10p-9-|


   S  S S S S S  S  S S S S S  S  S S S  
----------------------------------------|
----------------------------------------|
----------------------------------------|
--12p-9-9-9-9-9-10p-9-9-9-9-9-10p-9-9-9-|
--12p-9-9-9-9-9-10p-9-9-9-9-9-10p-9-9-9-|
--12p-9-9-9-9-9-10p-9-9-9-9-9-10p-9-9-9-|


  S S  S  S S S S S  S  S S  S  S S  S  S  
------------------------------------------|
------------------------------------------|
------------------------------------------|
--9-9-12p-9-9-9-9-9-10p-9-9-10p-9-9-10p-9-|
--9-9-12p-9-9-9-9-9-10p-9-9-10p-9-9-10p-9-|
--9-9-12p-9-9-9-9-9-10p-9-9-10p-9-9-10p-9-|


   PM PM PM PM PM PM   PM PM PM PM PM   PM PM  
   E  S  S  S  S  S  S S  S  S  S  S  S S  S   
----------------------------------------------|
----------------------------------------------|
----------------------------------------------|
----------------------------------------------|
--12--9--9--9--9--9----9--9--9--9--9----9--9--|
--12--9--9--9--9--9----9--9--9--9--9----9--9--|


  PM PM PM   PM PM PM PM                     
  S  S  S  S S  S  S  S   S S S  S S S  S S  
--------------------------------------------|
--------------------------------------------|
--------------------------------------------|
-------------------------10-9-9-10-9-9-10-9-|
--9--9--9----9--9--9--9--10-9-9-10-9-9-10-9-|
--9--9--9----9--9--9--9--10-9-9-10-9-9-10-9-|


   PM PM PM PM PM PM   PM PM PM PM PM   PM PM  
   E  S  S  S  S  S  S S  S  S  S  S  S S  S   
----------------------------------------------|
----------------------------------------------|
----------------------------------------------|
----------------------------------------------|
--12--9--9--9--9--9----9--9--9--9--9----9--9--|
--12--9--9--9--9--9----9--9--9--9--9----9--9--|


  PM PM PM   PM PM PM PM                                                        
  S  S  S  S S  S  S  S   S S S  S S S  S S     E  S S S S S S S S S S S S S S  
--------------------------------------------|----------------------------------|
--------------------------------------------|----------------------------------|
--------------------------------------------|----------------------------------|
-------------------------10-9-9-10-9-9-10-9-|--12------------------------------|
--9--9--9----9--9--9--9--10-9-9-10-9-9-10-9-|--12--9-9-9-9-9---9-9-9-9-9---9-9-|
--9--9--9----9--9--9--9--10-9-9-10-9-9-10-9-|--12--9-9-9-9-9---9-9-9-9-9---9-9-|


  S S S S S S S S  S S S  S S S  S S     E  S S S S S S S S S S S S S S  
-------------------------------------|----------------------------------|
-------------------------------------|----------------------------------|
-------------------------------------|----------------------------------|
-------------------------------------|--12------------------------------|
--9-9-9---9-9-9-9-10-9-9-10-9-9-10-9-|--12--9-9-9-9-9---9-9-9-9-9---9-9-|
--9-9-9---9-9-9-9-10-9-9-10-9-9-10-9-|--12--9-9-9-9-9---9-9-9-9-9---9-9-|


  S S S S S S S S  S S S  S S S  S S    E  E  E  E  E  E  E  E   
-------------------------------------|--------------------------|
-------------------------------------|--------------------------|
-------------------------------------|--------------------------|
-------------------------------------|--5--5--5--4--4--4--1--1--|
--9-9-9---9-9-9-9-10-9-9-10-9-9-10-9-|--5--5--5--4--4--4--1--1--|
--9-9-9---9-9-9-9-10-9-9-10-9-9-10-9-|--5--5--5--4--4--4--1--1--|


  E  E  E  E  E  E  E  E     E  E  E  E  E  E  E  E   
--------------------------|--------------------------|
--------------------------|--------------------------|
--------------------------|--------------------------|
--1--2--2--2--1--1--2--1--|--5--5--5--4--4--4--1--1--|
--1--2--2--2--1--1--2--1--|--5--5--5--4--4--4--1--1--|
--1--2--2--2--1--1--2--1--|--5--5--5--4--4--4--1--1--|


                   PM PM PM PM PM                             
  E  E  E  E  E  S S  S  S  S  S     E  E  E  E  E  E  E  E   
----------------------------------|--------------------------|
----------------------------------|--------------------------|
----------------------------------|--------------------------|
--1--4--4--4--1-------------------|--5--5--5--4--4--4--1--1--|
--1--4--4--4--1-------------------|--5--5--5--4--4--4--1--1--|
--1--4--4--4--1--0-0--0--0--0--0--|--5--5--5--4--4--4--1--1--|


  E  E  E  E  E  E  E  E     E  E  E  E  E  E  E  E   
--------------------------|--------------------------|
--------------------------|--------------------------|
--------------------------|--------------------------|
--1--2--2--2--1--1--2--1--|--5--5--5--4--4--4--1--1--|
--1--2--2--2--1--1--2--1--|--5--5--5--4--4--4--1--1--|
--1--2--2--2--1--1--2--1--|--5--5--5--4--4--4--1--1--|


                   PM PM PM PM PM                                           
  E  E  E  E  E  S S  S  S  S  S      S  S S S S S  S  S S S S S  S  S S S  
----------------------------------|----------------------------------------|
----------------------------------|----------------------------------------|
----------------------------------|----------------------------------------|
--1--4--4--4--1-------------------|--12p-9-9-9-9-9-10p-9-9-9-9-9-10p-9-9-9-|
--1--4--4--4--1-------------------|--12p-9-9-9-9-9-10p-9-9-9-9-9-10p-9-9-9-|
--1--4--4--4--1--0-0--0--0--0--0--|--12p-9-9-9-9-9-10p-9-9-9-9-9-10p-9-9-9-|


  S S  S  S S S S S  S  S S  S  S S  S  S  
------------------------------------------|
------------------------------------------|
------------------------------------------|
--9-9-12p-9-9-9-9-9-10p-9-9-10p-9-9-10p-9-|
--9-9-12p-9-9-9-9-9-10p-9-9-10p-9-9-10p-9-|
--9-9-12p-9-9-9-9-9-10p-9-9-10p-9-9-10p-9-|


   S  S S S S S  S  S S S S S  S  S S S  
----------------------------------------|
----------------------------------------|
----------------------------------------|
--12p-9-9-9-9-9-10p-9-9-9-9-9-10p-9-9-9-|
--12p-9-9-9-9-9-10p-9-9-9-9-9-10p-9-9-9-|
--12p-9-9-9-9-9-10p-9-9-9-9-9-10p-9-9-9-|


  S S  S  S S S S S  S  S S  S  S S  S  S  
------------------------------------------|
------------------------------------------|
------------------------------------------|
--9-9-12p-9-9-9-9-9-10p-9-9-10p-9-9-10p-9-|
--9-9-12p-9-9-9-9-9-10p-9-9-10p-9-9-10p-9-|
--9-9-12p-9-9-9-9-9-10p-9-9-10p-9-9-10p-9-|


   S   S  S  S   S  S   S   S  S   S   S  S   S   S  S   S   
------------------------------------------------------------|
---------13-14p-13------------13h-14p-13------------13h-14h-|
--13h-14-----------14p-13h-14------------14p-13h-14---------|
------------------------------------------------------------|
------------------------------------------------------------|
------------------------------------------------------------|


   S  S   S   S  S   S   S.  E   S  S  S  E.    T     Q.       Q.       Q      
---------------------------/14--12----------------|---------------------------|
--13------------13h-14p-13---------14-13-12br---L-|--11~------12~-------------|
-----14p-13h-14-----------------------------------|--------------------11~----|
--------------------------------------------------|---------------------------|
--------------------------------------------------|---------------------------|
--------------------------------------------------|---------------------------|


   E  Q.     H             H.            E  E     E   E  E  H         E   
------------------------|----------------------|-------------------------|
------------------------|----------------------|-------------------------|
---L--9-----------------|----------------------|-------------------------|
-------------9br--------|--8~------------8--9--|--9b--9--8---------------|
------------------------|----------------------|------------9~--------L--|
------------------------|----------------------|-------------------------|


   S  S  E  E   S  S  E   S  S  E   E     E   E    E   E   H          
---------------------------------------|--------------12--14~--------|
--------10-----------12--------10------|-----10s--12-----------------|
--10-11--------10-11-----10-11-----11--|--9--------------------------|
---------------------------------------|-----------------------------|
---------------------------------------|-----------------------------|
---------------------------------------|-----------------------------|


   Q      Q      Q      Q         Q      Q      Q      Q      
------------------------------|------------------------------|
------------------------------|------------------------------|
---------(6)-----------(6)----|---------(6)-----------(6)----|
--(4)-----------(5)-----------|--(4)-----------(5)-----------|
--(4)-----------(5)-----------|--(4)-----------(5)-----------|
--(4)-----------(5)-----------|--(4)-----------(5)-----------|


   Q      Q      Q      Q         Q      Q      Q      Q      
------------------------------|------------------------------|
------------------------------|------------------------------|
---------(6)-----------(6)----|---------(6)-----------(6)----|
--(4)-----------(5)-----------|--(4)-----------(5)-----------|
--(4)-----------(5)-----------|--(4)-----------(5)-----------|
--(4)-----------(5)-----------|--(4)-----------(5)-----------|


   Q      Q      Q      Q         Q      Q      Q      Q      
------------------------------|------------------------------|
------------------------------|------------------------------|
---------(6)-----------(6)----|---------(6)-----------(6)----|
--(4)-----------(5)-----------|--(4)-----------(5)-----------|
--(4)-----------(5)-----------|--(4)-----------(5)-----------|
--(4)-----------(5)-----------|--(4)-----------(5)-----------|


                                                    PM PM PM  
   Q      Q      Q      Q         Q      Q      E   E  E  E   
------------------------------|------------------------------|
------------------------------|------------------------------|
---------(6)-----------(6)----|---------(6)------------------|
--(4)-----------(5)-----------|--(4)-----------(5)-----------|
--(4)-----------(5)-----------|--(4)-----------(5)-----------|
--(4)-----------(5)-----------|--(4)-----------(5)--0--0--0--|


   Q      Q      Q      Q         Q      Q      Q      Q      
------------------------------|------------------------------|
------------------------------|------------------------------|
---------(6)-----------(6)----|---------(6)-----------(6)----|
--(4)-----------(5)-----------|--(4)-----------(5)-----------|
--(4)-----------(5)-----------|--(4)-----------(5)-----------|
--(4)-----------(5)-----------|--(4)-----------(5)-----------|


   Q      Q      Q      Q         Q      Q      Q      Q      
------------------------------|------------------------------|
------------------------------|------------------------------|
---------(6)-----------(6)----|---------(6)-----------(6)----|
--(4)-----------(5)-----------|--(4)-----------(5)-----------|
--(4)-----------(5)-----------|--(4)-----------(5)-----------|
--(4)-----------(5)-----------|--(4)-----------(5)-----------|


   Q      Q      Q      Q         Q      Q      Q      Q      
------------------------------|------------------------------|
------------------------------|------------------------------|
---------(6)-----------(6)----|---------(6)-----------(6)----|
--(4)-----------(5)-----------|--(4)-----------(5)-----------|
--(4)-----------(5)-----------|--(4)-----------(5)-----------|
--(4)-----------(5)-----------|--(4)-----------(5)-----------|


                                                    PM PM PM  
   Q      Q      Q      Q         Q      Q      E   E  E  E   
------------------------------|------------------------------|
------------------------------|------------------------------|
---------(6)-----------(6)----|---------(6)------------------|
--(4)-----------(5)-----------|--(4)-----------(5)-----------|
--(4)-----------(5)-----------|--(4)-----------(5)-----------|
--(4)-----------(5)-----------|--(4)-----------(5)--0--0--0--|


  E  E  E  E  E  E  E  E     E  E  E  E  E  E  E  E   
--------------------------|--------------------------|
--------------------------|--------------------------|
--------------------------|--------------------------|
--5--5--5--4--4--4--1--1--|--1--2--2--2--1--1--2--1--|
--5--5--5--4--4--4--1--1--|--1--2--2--2--1--1--2--1--|
--5--5--5--4--4--4--1--1--|--1--2--2--2--1--1--2--1--|


                                              PM PM PM PM PM  
  E  E  E  E  E  E  E  E     E  E  E  E  E  S S  S  S  S  S   
--------------------------|----------------------------------|
--------------------------|----------------------------------|
--------------------------|----------------------------------|
--5--5--5--4--4--4--1--1--|--1--4--4--4--1-------------------|
--5--5--5--4--4--4--1--1--|--1--4--4--4--1-------------------|
--5--5--5--4--4--4--1--1--|--1--4--4--4--1--0-0--0--0--0--0--|


  E  E  E  E  E  E  E  E     E  E  E  E  E  E  E  E   
--------------------------|--------------------------|
--------------------------|--------------------------|
--------------------------|--------------------------|
--5--5--5--4--4--4--1--1--|--1--2--2--2--1--1--2--1--|
--5--5--5--4--4--4--1--1--|--1--2--2--2--1--1--2--1--|
--5--5--5--4--4--4--1--1--|--1--2--2--2--1--1--2--1--|


                                              PM PM PM PM PM  
  E  E  E  E  E  E  E  E     E  E  E  E  E  S S  S  S  S  S   
--------------------------|----------------------------------|
--------------------------|----------------------------------|
--------------------------|----------------------------------|
--5--5--5--4--4--4--1--1--|--1--4--4--4--1-------------------|
--5--5--5--4--4--4--1--1--|--1--4--4--4--1-------------------|
--5--5--5--4--4--4--1--1--|--1--4--4--4--1--0-0--0--0--0--0--|


   S  S S S S S  S  S S S S S  S  S S S  
----------------------------------------|
----------------------------------------|
----------------------------------------|
--12p-9-9-9-9-9-10p-9-9-9-9-9-10p-9-9-9-|
--12p-9-9-9-9-9-10p-9-9-9-9-9-10p-9-9-9-|
--12p-9-9-9-9-9-10p-9-9-9-9-9-10p-9-9-9-|


  S S  S  S S S S S  S  S S  S  S S  S  S  
------------------------------------------|
------------------------------------------|
------------------------------------------|
--9-9-12p-9-9-9-9-9-10p-9-9-10p-9-9-10p-9-|
--9-9-12p-9-9-9-9-9-10p-9-9-10p-9-9-10p-9-|
--9-9-12p-9-9-9-9-9-10p-9-9-10p-9-9-10p-9-|


   S  S S S S S  S  S S S S S  S  S S S  
----------------------------------------|
----------------------------------------|
----------------------------------------|
--12p-9-9-9-9-9-10p-9-9-9-9-9-10p-9-9-9-|
--12p-9-9-9-9-9-10p-9-9-9-9-9-10p-9-9-9-|
--12p-9-9-9-9-9-10p-9-9-9-9-9-10p-9-9-9-|


  S S  S  S S S S S  S  S S  S  S S  S  S  
------------------------------------------|
------------------------------------------|
------------------------------------------|
--9-9-12p-9-9-9-9-9-10p-9-9-10p-9-9-10p-9-|
--9-9-12p-9-9-9-9-9-10p-9-9-10p-9-9-10p-9-|
--9-9-12p-9-9-9-9-9-10p-9-9-10p-9-9-10p-9-|


   S  S S S S S  S  S S S S S  S  S S S  
----------------------------------------|
----------------------------------------|
----------------------------------------|
--12p-9-9-9-9-9-10p-9-9-9-9-9-10p-9-9-9-|
--12p-9-9-9-9-9-10p-9-9-9-9-9-10p-9-9-9-|
--12p-9-9-9-9-9-10p-9-9-9-9-9-10p-9-9-9-|


  S S  S  S S S S S  S  S S  S  S S  S  S  
------------------------------------------|
------------------------------------------|
------------------------------------------|
--9-9-12p-9-9-9-9-9-10p-9-9-10p-9-9-10p-9-|
--9-9-12p-9-9-9-9-9-10p-9-9-10p-9-9-10p-9-|
--9-9-12p-9-9-9-9-9-10p-9-9-10p-9-9-10p-9-|


   S  S S S S S  S  S S S S S  S  S S S    S S  S  S S S S S  S  S S S S E.    
----------------------------------------|------------------------------------||
----------------------------------------|------------------------------------||
----------------------------------------|------------------------------------||
--12p-9-9-9-9-9-10p-9-9-9-9-9-10p-9-9-9-|--9-9-12p-9-9-9-9-9-10p-9-9-9-9-----||
--12p-9-9-9-9-9-10p-9-9-9-9-9-10p-9-9-9-|--9-9-12p-9-9-9-9-9-10p-9-9-9-9-----||
--12p-9-9-9-9-9-10p-9-9-9-9-9-10p-9-9-9-|--9-9-12p-9-9-9-9-9-10p-9-9-9-9-----||




Duration Legend
---------------
W - whole
H - half
Q - quarter
E - 8th
S - 16th
T - 32nd
X - 64th
. - note dotted
|-n-|  - n-tuplets


Tablature Legend
----------------
L - tied note
x - dead note
g - grace note
(n) - ghost note
> - accentuded note
NH - natural harmonic
AH - artificial harmonic
TH - tapped harmonic
SH - semi harmonic
PH - pitch harmonic
h - hammer on
p - pull off
b - bend
br - bendRelease
pb - preBend
pbr - preBendRelease
brb - bendReleaseBend
\n/ - tremolo bar dip
\n - tremolo bar dive
-/n - tremolo bar Release up
/n\ - tremolo bar inverted dip
/n - tremolo bar return
-\n - tremolo bar Release down
S - shift slide
s - legato slide
/ -  slide into from below or out of upwards
\ -  slide into from above or out of downwards
~ - vibrato
W - wide vibrato
tr - trill
TP - tremolo picking
T - tapping
S - slap
P - pop
< - fade in
^ - brush up
v - brush down
comments
We did not receive enough feedback on this tab! Please rate:
print report bad tab
1 2 3 4 5
I want to post or [tab]
guest
You may want to rate the tab now too:
select rating
Please do not post tabs as comments. Select "correction" instead!