Oops, an error
Loading. Please wait.

B-Sides Tracks Tab

4,226 views 3 this week
6 commentsread comments
1 2 3 4 5
worth learning
x 2
Autoscroll
+/-
esc
set tempo
stop
Contributor
Difficulty
intermediate
Hey! There's an official Ultimate Guitar app which is ideal
for learning songs when you're away from computer. Get the app
WARNING: You are trying to view
                                    content from Ultimate-Guitar.com
                                    in an unauthorized application,
                                    which is prohibited.

                                    Please use an official Ultimate
                                    Guitar Tabs application for iPhone,
                                    iPad or Android to access legitimate
                                    chords, guitar, bass, and drum tabs
                                    from Ultimate-Guitar.com database.

                                    Type "ultimate guitar tabs" in Apple
                                    App Store's or Android Market's
                                    search to find the application.
     Apparently the word is out that within a year or so, Disturbed will release a
tracks album" that will contain unreleased songs. It will contain songs that they didn't use
certain albums during their recordings, such as Hell and songs that they used to
to movies, such as forsaken. I had found a trck listing and so I thought I'd put the
up for ones that I know. I guess you can consider this as a Rare songs album 2 if you wanted.

Artist:Disturbed
Album:B-sides Tracks album
Year:Unknown, 2006 or 2007
Track listing:

1.Loading the Weapon
2.God of the Mind
3.Dehumanized
4.Perfect Insanity
5.Hell
6.A Welcome Burden
7.Forsaken
8.Monster
9.Glass Shatters
10.Two Worlds
11.Criminal
12.Sickened

h=hammer on
p=pull off
b=bend
*=harmonic
~=vibrato
/or\=slide
PM=palm mute

First up . . .

1.Loading the Weapon
Tuning Drop D(D,A,D,G,B,e)
Note:It has been said that there will be a studio recorded version for this song instead
the live version.

Intro
e-------------------------------------------------------------------|
B-------------------------------------------------------------------|
G-------------------------------------------------------------------|
D---8---5------7--5---5---8---5------7--5-------8---5------7--5---5-|
A-5---5---5--6------6---5---5---5--6----------5---5---5--6------6---|
D-----------------------------------------5p0-----------------------|

e-------------------------------------------------------------------|
B-------------------------------------------------------------------|
G-------------------------------------------------------------------|
D---8---5------7--5---5---8---5------7--5-------8---5------7--5---5-|
A-5---5---5--6------6---5---5---5--6----------5---5---5--6------6---|
D-----------------------------------------5p0-----------------------|

e-------------------------------------------------------------------|
B-------------------------------------------------------------------|
G-------------------------------------------------------------------|
D---8---5------7--5---5---8---5------7--5-------8---5------7--5---5-|
A-5---5---5--6------6---5---5---5--6----------5---5---5--6------6---|
D-----------------------------------------5p0-----------------------|

e--------------------------|
B--------------------------|
G--------------------------|
D--------------------------|
A---------6-6---6---5--3-3-|
D-0--5--6-----6---0--------|

Verse(I suppose)
e------------------------------------------|
B------------------------------------------|
G------------------------------------------|
D-58885-x-x-57775-5*-x-x-666666-x-x-666666-|
A-55555-x-x-55555-5*-x-x-666666-x-x-666666-|
D-55555-x-x-55555-5*-x-x-666666-x-x-666666-|

e------------------------------------------|
B------------------------------------------|
G------------------------------------------|
D-58885-x-x-57775-5*-x-x-666666-x-x-666666-|
A-55555-x-x-55555-5*-x-x-666666-x-x-666666-|
D-55555-x-x-55555-5*-x-x-666666-x-x-666666-|

Chorus(I suppose aswell)
e---------------------------------------------------------------------------|
B---------------------------------------------------------------------------|
G---------------------------------------------------------------------------|
D-1-1-88-8-7-x-x-3-3--5x5x5-778877-1-1-88-87-3-5x5x5x5-000-1-1-888-7-555555-|
A-1-1-88-8-7-x-x-3-3--5x5x5-778877-1-1-88-87-3-5x5x5x5-000-1-1-888-7-555555-|
D-1-1-88-8-7-x-x-3-3--5x5x5-778877-1-1-88-87-3-5x5x5x5-000-1-1-888-7-555555-|

Outro
e---6-6-6-6-6------------------------|
B---------------10-10-10-10-10-10-10-|
G------------------------------------|
D-0-----------0----------------------|
A-0-----------0----------------------|
D-0-----------0----------------------|


e---------------------|
B---------------------|
G---------------------|
D-0--0-0--0-0--0-0--0-|
A-0--0-0--0-0--0-0--0-|
D-0--0-0--0-0--0-0--0-|
  ^Yes you hold these.

2.God of the Mind
Drop D(D,A,D,G,B,e)

Intro
E---------------------------------------------------|
B---------------------------------------------------|
G------------------3-3-3--------------------3-3-3---|
D3-5-3-6-3-5-3-6-3-3-3-3--3-5-3-6-3-5-3-6-3-1-1-1---|
A3-5-3-6-3-5-3-6-3-1-1-1--3-5-3-6-3-5-3-6-3-1-1-1---|
D3-5-3-6-3-5-3-6-3--------3-5-3-6-3-5-3-6-3---------|

E---------------------------------------------------|
B---------------------------------------------------|
G------------------3-3-3--------------------3-3-3---|
D3-5-3-6-3-5-3-6-3-3-3-3--3-5-3-6-3-5-3-6-3-1-1-1---|
A3-5-3-6-3-5-3-6-3-1-1-1--3-5-3-6-3-5-3-6-3-1-1-1---|
D3-5-3-6-3-5-3-6-3--------3-5-3-6-3-5-3-6-3---------|

E---------------------------------------------------|
B---------------------------------------------------|
G------------------3-3-3--------------------3-3-3---|
D3-5-3-6-3-5-3-6-3-3-3-3--3-5-3-6-3-5-3-6-3-1-1-1---|
A3-5-3-6-3-5-3-6-3-1-1-1--3-5-3-6-3-5-3-6-3-1-1-1---|
D3-5-3-6-3-5-3-6-3--------3-5-3-6-3-5-3-6-3---------|

E---------------------------------------------------|
B---------------------------------------------------|
G------------------3-3-3--------------------3-3-3---|
D3-5-3-6-3-5-3-6-3-3-3-3--3-5-3-6-3-5-3-6-3-1-1-1---|
A3-5-3-6-3-5-3-6-3-1-1-1--3-5-3-6-3-5-3-6-3-1-1-1---|
D3-5-3-6-3-5-3-6-3--------3-5-3-6-3-5-3-6-3---------|


E----------------|
B----------------|
G----------------|
D0---------------|
A0---------------|
D0---------------|
 ^Hold this for a while
Verse
E-------------------------------------------|
B-------------------------------------------|
G-------------------------------------------|
D-------------------------------------------|
A3-5-3-5-3-5-3-5-3-5-3--5-3-5-3-5-3-5-3-5-6-|
D-------------------------------------------|

E------------------------------------------------------------------------------|
B------------------------------------------------------------------------------|
G------------------------------------------------------------------------------|
D------------------------------------------------------------------------------|
A3-5-3-5-3-5-3-5-3-5-3--5-3-5-3-5-3-5-3-5-6------------------------------------|
D------------------------------------------------------------------------------|
                                                                            E--|
B------------------------------------------------------------------------------|
G------------------------------------------------------------------------------|
D------------------------------------------------------------------------------|
A3-5-3-5-3-5-3-5-3-5-3--5-3-5-3-5-3-5-3-5-6------------------------------------|
D------------------------------------------------------------------------------|

E-------------------------------------------|
B-------------------------------------------|
G-------------------------------------------|
D-------------------------------------------|
A3-5-3-5-3-5-3-5-3-5-3--5-3-5-3-5-3-5-3-5-6-|
D-------------------------------------------|

Pre-Chorus
E------------------------------------------------------------------|
B------------------------------------------------------------------|
G------------------------------------------------------------------|
D0-0-0-3-3-3-0-0-0-3-3-3-0-0-3-3--0-0-0-3-3-3-0-0-0-3-3-3-0-0-3-3--|
A------------------------------------------------------------------|
D------------------------------------------------------------------|

Chorus
E-----------------------------------|
B-----------------------------------|
G-----------------------------------|
D0--3--0--3--0-3---0--3--0--3--0-3--|
A0--3--0--3--0-3---0--3--0--3--0-3--|
D0--3--0--3--0-3---0--3--0--3--0-3--|

E-----------------------------------|
B-----------------------------------|
G-----------------------------------|
D0--3--0--3--0-3---0--3--0--3--0-3--|
A0--3--0--3--0-3---0--3--0--3--0-3--|
D0--3--0--3--0-3---0--3--0--3--0-3--|

Interlude
E------------------------------------|
B---------------------------------3^-|
G----------------5*------------------|
D6-xxxx6-xxxxxx-5*--6-xxxx6-xxxxxx---|
A6-xxxx6-xxxxxx-----6-xxxx6-xxxxxx---|
D6-xxxx6-xxxxxx-----6-xxxx6-xxxxxx---|

Outro
E--------------------------------|
B--------------------------------|
G--------------------------------|
D0-0-0-3-3-3-0-0-0-3-3-3-0-0-3-3-|
A0-0-0-3-3-3-0-0-0-3-3-3-0-0-3-3-|
D0-0-0-3-3-3-0-0-0-3-3-3-0-0-3-3-|

3.Dehumanized
Drop D(D,A,D,G,B,e)
Note:It has been said that there will be a studio recorded version for this song instead
the live version.

Intro/Verse
e---------------------------------------|
B---------------------------------------|
G---------------------------------------|
D---------------------------------------|
A------5--------5--------5-------5------|
D--0000-000-8888-888-2222-222-7777-777--|
PM ---- --- ---- --- ---- --- ---- ---

e---------------------------------------|
B---------------------------------------|
G---------------------------------------|
D---------------------------------------|
A------5--------5--------5-------5------|
D--0000-000-8888-888-2222-222-7777-777--|
PM ---- --- ---- --- ---- --- ---- ---

e---------------------------------------|
B---------------------------------------|
G---------------------------------------|
D---------------------------------------|
A------5--------5--------5-------5------|
D--0000-000-8888-888-2222-222-7777-777--|
PM ---- --- ---- --- ---- --- ---- ---

e---------------------------------------|
B---------------------------------------|
G---------------------------------------|
D---------------------------------------|
A------5--------5--------5--------5-6---|
D--0000-000-8888-888-2222-222-7777------|
PM ---- --- ---- --- ---- --- ----

Pre-chorus
e-----------------------------------------------------------|
B----4--------------4------------4---------------4-4-4-4-4--|
G----3--------5*----3------------3---------------3-3-3-3-3--|
D-000-00-00--5*--000-00-00-00-000-00-00--5*---000--2-2-2-2--|
A-000-00-00-5*---000-00-00-00-000-00-00-5*-5*-000-----------|
D-000-00-00------000-00-00-00-000-00-00-------000-----------|
PM--- -- --      --- -- -- -- --- -- --       ---

Chorus
e---------------------------------------------------|
B---------------------------------------------------|
G----------------------------5555-------------------|
D-0-xxx-0-xxx-33xx-33xx-33xx-5555-5/88xx-88xx-88xx--|
A-0-xxx-0-xxx-33xx-33xx-33xx-3333-5/88xx-88xx-88xx--|
D-0-xxx-0-xxx-33xx-33xx-33xx------5/88xx-88xx-88xx--|

e---------------------------------------------------|
B---------------------------------------------------|
G----------------------------5555-------------------|
D-0-xxx-0-xxx-33xx-33xx-33xx-5555-5/88xx-88xx-88xx--|
A-0-xxx-0-xxx-33xx-33xx-33xx-3333-5/88xx-88xx-88xx--|
D-0-xxx-0-xxx-33xx-33xx-33xx------5/88xx-88xx-88xx--|

Brigde
e-------------------|
B-------------------|
G-------------------|
D-000-000-000-000---|
A-000-000-000-000---|
D-000-000-000-000---|
PM--- --- --- ------|

e------------------------------|
B------------------------------|
G--------3322------------------|
D-3-5-1111111-3-5-1-3-5555555--|
A-3-5-1111111-3-5-1-3-5555555--|
D-3-5-1111111-3-5-1-3-5555555--|

e------------------------------|
B------------------------------|
G--------3322------------------|
D-3-5-1111111-3-5-1-3-5555555--|
A-3-5-1111111-3-5-1-3-5555555--|
D-3-5-1111111-3-5-1-3-5555555--|

4.Perfect Insanity
Drop D(D,A,D,G,B,e)

Intro:There is a drum solo thingy in the intro before the guitar comes in.
e-------------------------------------------------|
B-------------------------------------------------|
G-------------------------------------------------|
D-------------------------------------------------|
A-0--00-3h5-0--3--00-3h5-0--3-00-3h5-0-3-000000---|
D-0--00-----0--3--00-----0--3-00-----0-3-000000---|
P.M. --     -     --     -    --     -   ------

e-------------------------------------------------|
B-------------------------------------------------|
G-------------------------------------------------|
D-------------------------------------------------|
A-0--00-3h5-0--3--00-3h5-0--3-00-3h5-0-3-000000---|
D-0--00-----0--3--00-----0--3-00-----0-3-000000---|
P.M. --     -     --     -    --     -   ------

e-------------------------------------------------|
B-------------------------------------------------|
G-------------------------------------------------|
D-------------------------------------------------|
A-0--00-3h5-0--3--00-3h5-0--3-00-3h5-0-3-000000---|
D-0--00-----0--3--00-----0--3-00-----0-3-000000---|
P.M. --     -     --     -    --     -   ------

e-------------------------------------------------|
B-------------------------------------------------|
G-------------------------------------------------|
D-------------------------------------------------|
A-0--00-3h5-0--3--00-3h5-0--3-00-3h5-0-3-000000---|
D-0--00-----0--3--00-----0--3-00-----0-3-000000---|
P.M. --     -     --     -    --     -   ------

Verse
e----------------------------------------------------|
B----------------------------------------------------|
G----------------------------------------------------|
D----------------------------------------------------|
A-3---------3-3------3-3------3-3--3-3--3-3--333333--|
D-3---------3-3------3-3------3-3--3-3--3-3--333333--|
    ^Between these are probably more time, on second verse too!

e-------------------------------------------------------------------|
B-------------------------------------------------------------------|
G-------------------------------------------------------------------|
D-------------------------------------------------------------------|
A-3h5---3h5--3h5---3h5--3h5---3h5--3h5---3h5--3h5---3h5--3h5---3h5--|
D-----0----------0----------0----------0----------0----------0------|
P.M.  -          -          -          -          -          -

e-------------------------------------------------------------------|
B-------------------------------------------------------------------|
G-------------------------------------------------------------------|
D-------------------------------------------------------------------|
A-3h5---3h5--3h5---3h5--3h5---3h5--3h5---3h5--3h5---3h5--3h5---3h5--|
D-----0----------0----------0----------0----------0----------0------|
P.M.  -          -          -          -          -          -


Pre-chorus
e--------------------------------------------------------------------|
B--------------------------------------------------------------------|
G--------------------------------------------------------------------|
D-7-0----------7-0----------7777--7-0----------7-0----------7777-----|
A-7-0--000000--7-0--000000--7777--7-0--000000--7-0--000000--7777-----|
D-7-0--000000--7-0--000000--7777--7-0--000000--7-0--000000--7777-----|
P.M.   ------       ------             ------       -----------------|

e--------------------------------------------------|
B--------------------------------------------------|
G--------------------------------------------------|
D-7-0----------7-0----------7777-------------------|
A-7-0--000000--7-0--000000--7777-------------------|
D-7-0--000000--7-0--000000--7777--7~~7~~7~~7~~-----|
P.M.   ------       -------------------------------|

Chorus
e-----------------------------------------------|
B-----------------------------------------------|
G-----------------------------------------------|
D-7---------3---------7-----------3-------------|
A-7-----3h5-3-----3h5-7-----3h5---3-000000------|
D-7--00-----3--00-----7--00-----0-3-000000------|
P.M. --        --        --     -   ------

e-----------------------------------------------|
B-----------------------------------------------|
G-----------------------------------------------|
D-7---------3---------7-----------3-------------|
A-7-----3h5-3-----3h5-7-----3h5---3-000000------|
D-7--00-----3--00-----7--00-----0-3-000000------|
P.M. --        --        --     -   ------

e-----------------------------------------------|
B-----------------------------------------------|
G-----------------------------------------------|
D-7---------3---------7-----------3-------------|
A-7-----3h5-3-----3h5-7-----3h5---3-000000------|
D-7--00-----3--00-----7--00-----0-3-000000------|
P.M. --        --        --     -   ------

e-----------------------------------------------|
B-----------------------------------------------|
G-----------------------------------------------|
D-7---------3---------7-----------3-------------|
A-7-----3h5-3-----3h5-7-----3h5---3-000000------|
D-7--00-----3--00-----7--00-----0-3-000000------|
P.M. --        --        --     -   ------

Bridge
e--------------|
B--------------|
G--------------|
D-333333--3----|
A-333333--3----|
D-333333--3----|

Interlude:Little hard to figure out, uses EFX.
e----------------------------------------------------------------|
B------------------------4~~~~~~~~~---4--2~~~~4------------------|
G-4------------4--------------------------------3---3~~~~--------|
D-2------------2----------------------------------------2~~~~----|
A----------------------------------------------------------------|
D----------------------------------------------------------------|
   ^Yes you hold between these two!

e----------------------------------------------------------------|
B-14b------------14b---------------------------------------------|
G------14~~~~~-------14--12--------------------------------------|
D---------------------------14-12-10-----------------------------|
A------------------------------------15-14-12-10~~~~-------------|
D----------------------------------------------------------------|

e---------------------------------------------------------------------------------|
B----------------7b-----------------7b-----------------7b-------------------------|
G----------------5b-----------------5b-----------------5b-------------------------|
D0--------3---------0--------3---------0--------3---------0--------3--------------|
A0----3h5-3----3----0----3h5-3----3----0----3h5-3----3----0----3h5-3--------------|
D0-00-----3-00------0-00-----3-00------0-00-----3-00------0-00-----3-000000-P.M.--|
       --       --        --       --        --       ------


e---------------------------------------------------------------------------------|
B----------------7b-----------------7b-----------------7b-------------------------|
G----------------5b-----------------5b-----------------5b-------------------------|
D0--------3---------0--------3---------0--------3---------0--------3--------------|
A0----3h5-3----3----0----3h5-3----3----0----3h5-3----3----0----3h5-3--------------|
D0-00-----3-00------0-00-----3-00------0-00-----3-00------0-00-----3-000000-P.M.--|
       --       --        --       --        --       ------

e---------------------------------------------------------------------------------|
B----------------7b-----------------7b-----------------7b-------------------------|
G----------------5b-----------------5b-----------------5b-------------------------|
D0--------3---------0--------3---------0--------3---------0--------3--------------|
A0----3h5-3----3----0----3h5-3----3----0----3h5-3----3----0----3h5-3--------------|
D0-00-----3-00------0-00-----3-00------0-00-----3-00------0-00-----3-000000-P.M.--|
       --       --        --       --        --       ------


e---------------------------------------------------------------------------------|
B----------------7b-----------------7b-----------------7b-------------------------|
G----------------5b-----------------5b-----------------5b-------------------------|
D0--------3---------0--------3---------0--------3---------0--------3--------------|
A0----3h5-3----3----0----3h5-3----3----0----3h5-3----3----0----3h5-3--------------|
D0-00-----3-00------0-00-----3-00------0-00-----3-00------0-00-----3-000000-P.M.--|
       --       --        --       --        --       ------

Outro
e--------------------------------------------------------------------------|
B--------------------------------------------------------------------------|
G--------------------------------------------------------------------------|
D-3--------3--------3--------3--------3--------3--------3--------3---------|
A-3-000000-3-000000-3-000000-3-000000-3-000000-3-000000-3-000000-3-000000--|
D-3-000000-3-000000-3-000000-3-000000-3-000000-3-000000-3-000000-3-000000--|
P.M.------   ------   ------   ------   ------   ------   ------   ------

e--------------------------------------------------------------------------|
B--------------------------------------------------------------------------|
G--------------------------------------------------------------------------|
D-3--------3--------3--------3--------3--------3--------3--------3---------|
A-3-000000-3-000000-3-000000-3-000000-3-000000-3-000000-3-000000-3-000000--|
D-3-000000-3-000000-3-000000-3-000000-3-000000-3-000000-3-000000-3-000000--|
P.M.------   ------   ------   ------   ------   ------   ------   ------

e--------------------------------------------------------------------------|
B--------------------------------------------------------------------------|
G--------------------------------------------------------------------------|
D-3--------3--------3--------3--------3--------3--------3--------3---------|
A-3-000000-3-000000-3-000000-3-000000-3-000000-3-000000-3-000000-3-000000--|
D-3-000000-3-000000-3-000000-3-000000-3-000000-3-000000-3-000000-3-000000--|
P.M.------   ------   ------   ------   ------   ------   ------   ------

e--------------------------------------------------------------------------|
B--------------------------------------------------------------------------|
G--------------------------------------------------------------------------|
D-3--------3--------3--------3--------3--------3--------3--------3---------|
A-3-000000-3-000000-3-000000-3-000000-3-000000-3-000000-3-000000-3-000000--|
D-3-000000-3-000000-3-000000-3-000000-3-000000-3-000000-3-000000-3-000000--|
P.M.------   ------   ------   ------   ------   ------   ------   ------

e------------------------------|
B------------------------------|
G------------------------------|
D-333---------------------/3---|
A-333---------------------/3---|
D-333---------------------/3---|

5.Hell
Drop C(I think it's in drop C)(C,G,C,F,A,D)
Intro
E---------------------------------------------------------------------------|
B---------------------------------------------------------------------------|
G---------------------------------------------------------------------------|
D--5\8/7-----------7-7---------5\8/7----5\8/7------------7-7-----5\8/7------|
A--3\6/5----0-0-0--5-5----0-0--3\6/5----3\6/5----0-0-0---5-5--0--3\6/5------|
D-----------0-0-0---------0-0--------------------0-0-0--------0-------------|
P.M.        -----         ---                    -----        --------------|

E--------------------------------------------------------------------------|
B--------------------------------------------------------------------------|
G--------------------------------------------------------------------------|
D--7\10/9------------9-9-----8----10-----10----10-----12----12----12-------|
A--5\8-/7----0-0-0---7-7-0---7--0-8---0--8---0-8----0-10--0-10--0-10-------|
D------------0-0-0-------0------0-----0------0------0-----0-----0----------|
P.M.         -----       -      -     -      -      -     -     -

E---------------------------------------------------------------------------|
B---------------------------------------------------------------------------|
G---------------------------------------------------------------------------|
D--5\8/7-----------7-7---------5\8/7----5\8/7------------7-7-----5\8/7------|
A--3\6/5----0-0-0--5-5----0-0--3\6/5----3\6/5----0-0-0---5-5--0--3\6/5------|
D-----------0-0-0---------0-0--------------------0-0-0--------0-------------|
P.M.        -----         ---                    -----        --------------|
E---------------------------------------------------------------------------|
B---------------------------------------------------------------------------|
G---------------------------------------------------------------------------|
D--7\10/9------------9-9-----8----10-----10----10-----12----12----12--------|
A--5\8-/7----0-0-0---7-7-0---7--0-8---0--8---0-8----0-10--0-10--0-10--------|
D------------0-0-0-------0------0-----0------0------0-----0-----0-----------|
P.M.         -----       -      -     -      -      -     -     -

E-------------------|
B-------------------|
G-------------------|
D--0---------(0)----|
A--0---------(0)----|
D--0---------(0)----|

Verse
E-------------------------------------|
B-------------------------------------|
G-------------------------------------|
D-------------------------------------|
A--0--0--0-00-0000--0--0--0-00-0000---|
D--0--0--0-00-0000--0--0--0-00-0000---|
P.M.----------------------------------|

E-------------------------------------|
B-------------------------------------|
G-------------------------------------|
D-------------------------------------|
A--0--0--0-00-0000--0--0--0-00-0000---|
D--0--0--0-00-0000--0--0--0-00-0000---|
P.M.----------------------------------|

E-------------------------------------|
B-------------------------------------|
G-------------------------------------|
D-------------------------------------|
A--0--0--0-00-0000--0--0--0-00-0000---|
D--0--0--0-00-0000--0--0--0-00-0000---|
P.M.----------------------------------|

E--------------------------------------------|
B--------------------------------------------|
G--------------------------------------------|
D--------------------------------------------|
A--0--0--0-00-0000--0--0--0-00---------------|
D--0--0--0-00-0000--0--0--0-00-8-7h8-7-3-5---|
P.M.-----------------------------------------|

E------------------------------------|
B------------------------------------|
G------------------------------------|
D------------------------------------|
A------------------------------------|
D--0--0--0-00-0000--0--0--0-00-0000--|

E------------------------------------|
B------------------------------------|
G------------------------------------|
D------------------------------------|
A------------------------------------|
D--0--0--0-00-0000--0--0--0-00-0000--|

E------------------------------------|
B------------------------------------|
G------------------------------------|
D------------------------------------|
A------------------------------------|
D--0--0--0-00-0000--0--0--0-00-0000--|


E-------------------------------------------|
B-------------------------------------------|
G-------------------------------------------|
D-------------------------------------------|
A-------------------------------------------|
D--0--0--0-00-0000--0--0--0-00-8-7h8-7-3-5--|

Chorus
E---------------------------------------------------------------------------|
B---------------------------------------------------------------------------|
G-7-7-7-7-7-7-7-7--5-5-5-5-5-5-5-5--9-9-9-9-9-9-9-9-------------------------|
D-5-5-5-5-5-5-5-5--3-3-3-3-3-3-3-3--7-7-7-7-7-7-7-7--333-333-3-3------------|
A-5-5-5-5-5-5-5-5--3-3-3-3-3-3-3-3--7-7-7-7-7-7-7-7--333-333-3-3------------|
D-5-5-5-5-5-5-5-5--3-3-3-3-3-3-3-3--7-7-7-7-7-7-7-7--333-333-3-3------------|

E----------------------------------------------------------------------------|
B----------------------------------------------------------------------------|
G-7-7-7-7-7-7-7-7--5-5-5-5-5-5-5-5--9-9-9-9-9-9-9-9-121212121212121212121212-|
D-5-5-5-5-5-5-5-5--3-3-3-3-3-3-3-3--7-7-7-7-7-7-7-7-101010101010101010101010-|
A-5-5-5-5-5-5-5-5--3-3-3-3-3-3-3-3--7-7-7-7-7-7-7-7-101010101010101010101010-|
D-5-5-5-5-5-5-5-5--3-3-3-3-3-3-3-3--7-7-7-7-7-7-7-7-101010101010101010101010-|


Bridge
E------------------------------------------------------------------------|
B-------5b----------------5b----------------5b---------------5b----------|
G-----------------5b----------------4b---------------5b---------------4b-|
D-----------------4b---------------------------------4b------------------|
A--0-0-0---0--00-0---0-0-0---0--00-0---0-0-0--0--00-0---0-0-0---0--00-0--|
D--0-0-0---0--00-0---0-0-0---0--00-0---0-0-0--0--00-0---0-0-0---0--00-0--|
P.M.----   -  ----   -----   -  ----   -----  -  ----   -----   -  ----

E------------------------------------------------------------------------|
B-------5b----------------5b----------------5b---------------5b----------|
G-----------------5b----------------4b---------------5b---------------4b-|
D-----------------4b---------------------------------4b------------------|
A--0-0-0---0--00-0---0-0-0---0--00-0---0-0-0--0--00-0---0-0-0---0--00-0--|
D--0-0-0---0--00-0---0-0-0---0--00-0---0-0-0--0--00-0---0-0-0---0--00-0--|
P.M.----   -  ----   -----   -  ----   -----  -  ----   -----   -  ----

E------------------------------------------------------------------------|
B-------5b----------------5b----------------5b---------------5b----------|
G-----------------5b----------------4b---------------5b------------------|
D-----------------4b---------------------------------4b------------------|
A--0-0-0---0--00-0---0-0-0---0--00-0---0-0-0--0--00-0---0-0-0---0--00-0--|
D--0-0-0---0--00-0---0-0-0---0--00-0---0-0-0--0--00-0---0-0-0---0--00-0--|
P.M.----   -  ----   -----   -  ----   -----  -  ----   -----   -  ----

Chorus
E---------------------------------------------------------------------------|
B---------------------------------------------------------------------------|
G-7-7-7-7-7-7-7-7--5-5-5-5-5-5-5-5--9-9-9-9-9-9-9-9-------------------------|
D-5-5-5-5-5-5-5-5--3-3-3-3-3-3-3-3--7-7-7-7-7-7-7-7--333-333-3-3------------|
A-5-5-5-5-5-5-5-5--3-3-3-3-3-3-3-3--7-7-7-7-7-7-7-7--333-333-3-3------------|
D-5-5-5-5-5-5-5-5--3-3-3-3-3-3-3-3--7-7-7-7-7-7-7-7--333-333-3-3------------|

E----------------------------------------------------------------------------|
B----------------------------------------------------------------------------|
G-7-7-7-7-7-7-7-7--5-5-5-5-5-5-5-5--9-9-9-9-9-9-9-9-121212121212121212121212-|
D-5-5-5-5-5-5-5-5--3-3-3-3-3-3-3-3--7-7-7-7-7-7-7-7-101010101010101010101010-|
A-5-5-5-5-5-5-5-5--3-3-3-3-3-3-3-3--7-7-7-7-7-7-7-7-101010101010101010101010-|
D-5-5-5-5-5-5-5-5--3-3-3-3-3-3-3-3--7-7-7-7-7-7-7-7-101010101010101010101010-|

E----------------------------------------------------------------------------|
B----------------------------------------------------------------------------|
G--7-7-7-7-7-7-7-7------------------9-9-9-9-9-9-9-9--------------------------|
D--5-5-5-5-5-5-5-5------------------7-7-7-7-7-7-7-7--------------------------|
A--5-5-5-5-5-5-5-5-0--0000-0-0000-0-7-7-7-7-7-7-7-7-0--0000-0-0000-0---------|
D--5-5-5-5-5-5-5-5-0--0000-0-0000-0-7-7-7-7-7-7-7-7-0--0000-0-0000-0---------|
P.M.               ----------------                 -------------------------|

E----------------------------------------------------------------------------|
B----------------------------------------------------------------------------|
G--7-7-7-7-7-7-7-7------------------9-9-9-9-9-9-9-9-121212121212121212121212-|
D--5-5-5-5-5-5-5-5------------------7-7-7-7-7-7-7-7-101010101010101010101010-|
A--5-5-5-5-5-5-5-5-0--0000-0-0000-0-7-7-7-7-7-7-7-7-101010101010101010101010-|
D--5-5-5-5-5-5-5-5-0--0000-0-0000-0-7-7-7-7-7-7-7-7-101010101010101010101010-|
P.M.               ----------------------------------------------------------|

Outro
E---------------------------------------------------------------------------|
B---------------------------------------------------------------------------|
G---------------------------------------------------------------------------|
D--5\8/7-----------7-7---------5\8/7----5\8/7------------7-7-----5\8/7------|
A--3\6/5----0-0-0--5-5----0-0--3\6/5----3\6/5----0-0-0---5-5--0--3\6/5------|
D-----------0-0-0---------0-0--------------------0-0-0--------0-------------|
P.M.        -----         ---                    -----        --------------|
E---------------------------------------------------------------------------|
B---------------------------------------------------------------------------|
G---------------------------------------------------------------------------|
D--7\10/9------------9-9-----8-----------10----10-----12----12----12--------|
A--5\8-/7----0-0-0---7-7-0---7--------0--8---0-8----0-10--0-10--0-10--------|
D------------0-0-0-------0------------0------0------0-----0-----0-----------|
P.M.         -----       -            -      -      -     -     -

E---------------------------------------------------------------------------|
B---------------------------------------------------------------------------|
G---------------------------------------------------------------------------|
D--5\8/7-----------7-7---------5\8/7----5\8/7------------7-7-----5\8/7------|
A--3\6/5----0-0-0--5-5----0-0--3\6/5----3\6/5----0-0-0---5-5--0--3\6/5------|
D-----------0-0-0---------0-0--------------------0-0-0--------0-------------|
P.M.        -----         ---                    -----        --------------|
E---------------------------------------------------------------------------|
B---------------------------------------------------------------------------|
G---------------------------------------------------------------------------|
D--7\10/9------------9-9-----8-----------10----10-----12----12----12--------|
A--5\8-/7----0-0-0---7-7-0---7----8---0--8---0-8----0-10--0-10--0-10--------|
D------------0-0-0-------0------------0------0------0-----0-----0-----------|
P.M.         -----       -            -      -      -     -     -

E---------------|
B---------------|
G---------------|
D--0-----(0)----|
A--0-----(0)----|
D--0-----(0)----|

6.A Welcome Burden
Drop D(D,A,D,G,B,e)
Intro/Chorus
e---------------------------------------------------------------|
B---------------------------------------------------------------|
G---------------------------------------------------------------|
D-5-6-5-----5-6-5---5-6-5-----6-8-6---5-6-5-----5-6-5---1-3-1-3-|
A-3-4-3-4-3-3-4-3-4-3-4-3-4-3-4-6-4-6-3-4-3-4-3-3-4-3-4-1-3-1-3-|
D-------4-3-------4-------4-3-------6-------4-3-------4-1-3-1-3-|

e-----------------------------------------------------------------------|
B-----------------------------------------------------------------------|
G-----------------------------------------------------------------------|
D-5-6-5-----5-6-5---5-6-5-----6-8-6---5-6-5-----5-6-5---1-3-1-3-1-3-1-3-|
A-3-4-3-4-3-3-4-3-4-3-4-3-4-3-4-6-4-6-3-4-3-4-3-3-4-3-4-1-3-1-3-1-3-1-3-|
D-------4-3-------4-------4-3-------6-------4-3-------4-1-3-1-3-1-3-1-3-|

Verse
e----------------------------------------------|
B----------------------------------------------|
G-5~-------------------------------------------|
D-x~--10-13-10--10-13-10-  Plays open after 14-| times.
A-3~-------------------------------------------|
D----------------------------------------------|
P.M. ------------------------------------------|

Pre-Chorus
e------------------|
B------------------|
G------------------|
D-3-6-3-5--3-6-3-5-|
A-3-6-3-5--3-6-3-5-|
D-3-6-3-5--3-6-3-5-|

Interlude
e------------------------------------|
B------------------------------------|
G------------------------------10-13-|
D-11-10-10--10-11-10--10-11-10-x--x--|
A-11-10-10--10-11-10--10-11-10-8--11-|
D-11-10-10--10-11-10--10-11-10-------|

e--------------------------------------|
B--------------------------------------|
G--------------------------------------|
D-11-10-10--10-11-10-10--10-11---------|
A-11-10-10--10-11-10-10--10-11-x\\-xxx-|
D-11-10-10--10-11-10-10--10-11-x\\-xxx-|

e-------------------------|
B-------------------------|
G-------------------------|
D-3-3-3-3-3-3-6-6-6-6-6-6-|
A-3-3-3-3-3-3-6-6-6-6-6-6-|
D-3-3-3-3-3-3-6-6-6-6-6-6-|

Outro Chorus
e--------------------------------------|
B---------x8-----------x4--------------|
G--------------------------------------|
D---------6\5-5-5--5-6-5-----5-6-5-----|
A-x-x-x-x-4\3-3-3--3-4-3-4-3-3-4-3-4-3-|
D-x-x-x-x----------------4-3-------4-3-|


7.Forsaken
Standard (E,A,D,G,B,e)
Intro
e-------------------------------------------------------9-8-|
B-------------------------------------------------------9-8-|
G-------------------------------------------------------9-8-|
D-----------------------------------------------------------|
A-----------------------------------------------------------|
E-3-3--3-3--3---5-5--5-5--5---7-7--7-7--7---9-9--9-9--9-----|

Chorus
e-3---3---4--4---3---3---3-2---3-|
B-3---3---4--4---3---3---3-2---3-|
G-3---3---4--4---3---3---3-2---3-|
D--------------------------------|
A--------------------------------|
E--------------------------------|


8.Monster
Drop C(C,G,C,F,A,D)
Intro
D--------------------------------------|
A--------------------------------------|
F--------8xx5-x7-7-------8xx5----------|
C--0--0xx8xx5-x7-7-0--0xx8xx5-xx5p3-0--|
G--0--0xx6xx3-x5-5-0--0xx6xx3-xx5p3-0--|
C--0--0xx----------0--0xx-----xx5p3-0--|
PM             -

D---------------------------------|
A---------------------------------|
F-----8xx5-x7-7-------8xx5--------|
C--0xx8xx5-x7-7-0--0xx8xx5----5*--|
G--0xx6xx3-x5-5-0--0xx6xx3--5*----|
C--0xx----------0--0xx------------|
PM          -

D-----------------------------------|
A-----------------------------------|
F-----8xx5-x7-7-------8xx5----------|
C--0xx8xx5-x7-7-0--0xx8xx5-xx5p3-0--|
G--0xx6xx3-x5-5-0--0xx6xx3-xx5p3-0--|
C--0xx----------0--0xx-----xx5p3-0--|
PM          -

D-------------------------------|
A-------------------------------|
F-----8xx5-x7-7-------8xx5------|
C--0xx8xx5-x7-7-0--0xx8xx5------|
G--0xx6xx3-x5-5-0--0xx6xx3------|
C--0xx----------0--0xx------000-|
PM          -               ---

Verse
D------------------------------------------------|
A------------------------------------------------|
F--------5--------7--------5---------------------|
C--7-5-7----7-5-7----7-5-7----7-5-7--------------|
G-----------------------------------5--xx3-x6x3--|
C------------------------------------------------|


D------------------------------------------------|
A------------------------------------------------|
F--------5--------7--------5---------------------|
C--7-5-7----7-5-7----7-5-7----7-5-7----------x3--|
G-----------------------------------5--xx3-x6----|
C------------------------------------------------|

D------------------------------------------------|
A------------------------------------------------|
F--------5--------7--------5---------------------|
C--7-5-7----7-5-7----7-5-7----7-5-7--------------|
G-----------------------------------5--xx3-x6x3--|
C------------------------------------------------|


D------------------------------------------------|
A------------------------------------------------|
F--------5--------7--------5---------------------|
C--7-5-7----7-5-7----7-5-7----7-5-7----------x3--|
G-----------------------------------5--xx3-x6----|
C------------------------------------------------|

Pre-Chorus
D----------------------------------|
A----------------------------------|
F----------------------------------|
C-000-xx111-xx000-xx333------------|
G-000-xx111-xx000-xx333---1--3--5--|
C-000-xx111-xx000-xx333---1xx3xx5--|

Chorus
D--------------------------------------|
A--------------------------------------|
F--------8xx5-x7-7-------8xx5----------|
C--0--0xx8xx5-x7-7-0--0xx8xx5-xx5p3-0--|
G--0--0xx6xx3-x5-5-0--0xx6xx3-xx5p3-0--|
C--0--0xx----------0--0xx-----xx5p3-0--|
PM             -

D---------------------------------|
A---------------------------------|
F-----8xx5-x7-7-------8xx5--------|
C--0xx8xx5-x7-7-0--0xx8xx5----5*--|
G--0xx6xx3-x5-5-0--0xx6xx3--5*----|
C--0xx----------0--0xx------------|
PM          -

D-----------------------------------|
A-----------------------------------|
F-----8xx5-x7-7-------8xx5----------|
C--0xx8xx5-x7-7-0--0xx8xx5-xx5p3-0--|
G--0xx6xx3-x5-5-0--0xx6xx3-xx5p3-0--|
C--0xx----------0--0xx-----xx5p3-0--|
PM          -

D-------------------------------|
A-------------------------------|
F-----8xx5-x7-7-------8xx5------|
C--0xx8xx5-x7-7-0--0xx8xx5------|
G--0xx6xx3-x5-5-0--0xx6xx3------|
C--0xx----------0--0xx------000-|
PM          -               ---

Verse

Pre-Chorus

Chorus

Interlude
D-------------------------------|
A-------------------------------|
F-------------------------------|
C-------------------------------|
G-----5-6p5-6p5-6p5-6p5---------|
C-00--0---0---0---0---0--3-5----|
PM--      -   -   -   ----------|

D-------------------------------|
A-------------------------------|
F-------------------------------|
C-------------------------------|
G-----5-6p5-6p5-6p5-6h8------8--|
C--00--0---0---0---0---0--10----|
PM --  -   -   -   -   -

D-------------------------------|
A-------------------------------|
F-------------------------------|
C-------------------------------|
G-----5-6p5-6p5-6p5-6p5---------|
C-00--0---0---0---0---0--3-5----|
PM--      -   -   -   ----------|

D---------------------------|
A---------------------------|
F---------------------------|
C---------------------------|
G-----5-6p5-6p5---333-55-1--|
C--00--0---0---5--333-55-1--|
PM --  -   -   -   -   -

D-------------------------|
A-------------------------|
F----8\7-8\7-8\7-8\7------|
C--0-8\7-8\7-8\7-8\7--3-5-|
G--0-6\5-6\5-6\5-6\5--3-5-|
C--0------------------3-5-|
PM -

D-----------------------------|
A-----------------------------|
F----8\7-8\7-8\7-8/10-----10--|
C--0-8\7-8\7-8\7-8/10--10x10--|
G--0-6\5-6\5-6\5-6/8---10x8---|
C--0-------------------10x----|
PM -

D-------------------------|
A-------------------------|
F----8\7-8\7-8\7-8\7------|
C--0-8\7-8\7-8\7-8\7--3-5-|
G--0-6\5-6\5-6\5-6\5--3-5-|
C--0------------------3-5-|
PM -


D------------------------|
A------------------------|
F----8\7-8\7-------------|
C--0-8\7-8\7-5-333-55-1--|
G--0-6\5-6\5-5-333-55-1--|
C--0---------5-333-55-1--|
PM -

D-------------------------|
A-------------------------|
F----8\7-8\7-8\7-8\7------|
C--0-8\7-8\7-8\7-8\7--3-5-|
G--0-6\5-6\5-6\5-6\5--3-5-|
C--0------------------3-5-|
PM -

D-----------------------------|
A-----------------------------|
F----8\7-8\7-8\7-8/10-----10--|
C--0-8\7-8\7-8\7-8/10--10x10--|
G--0-6\5-6\5-6\5-6/8---10x8---|
C--0-------------------10x----|
PM -

D-------------------------|
A-------------------------|
F----8\7-8\7-8\7-8\7------|
C--0-8\7-8\7-8\7-8\7--3-5-|
G--0-6\5-6\5-6\5-6\5--3-5-|
C--0------------------3-5-|
PM -

D------------------------|
A------------------------|
F----8\7-8\7-------------|
C--0-8\7-8\7-5-333-55-1--|
G--0-6\5-6\5-5-333-55-1--|
C--0---------5-333-55-1--|
PM -

Solo (Guitar 1)

Which no one can tab up at the moment

Solo (Guitar 2)
D------------------------------------|
A------------------------------------|
F------------------------------------|
C--55555500000000007777778888888888--|
G--55555500000000007777778888888888--|
C--55555500000000007777778888888888--|

D-------------------------------------|
A-------------------------------------|
F-------------------------------------|
C--5555550000000000777777888-3-3-3-3--|
G--5555550000000000777777888-3-3-3-3--|
C--5555550000000000777777888-3-3-3-3--|

D------------------------------------|
A------------------------------------|
F------------------------------------|
C--55555500000000007777778888888888--|
G--55555500000000007777778888888888--|
C--55555500000000007777778888888888--|

D----------------------------------|
A----------------------------------|
F----------------------------------|
C--111111111111111555555555555555--|
G--111111111111111555555555555555--|
C--111111111111111555555555555555--|
   ^theses are 1's


Final Chorus
D---------------------------------------|
A---------------------------------------|
F---------------------------------------|
C--0--0xx1xx1-x3-x3p0--0xx1xx1-xx5p3-0--|
G--0--0xx1xx1-x3-x3p0--0xx1xx1-xx5p3-0--|
C--0--0xx1xx1-x3-x3p0--0xx1xx1-xx5p3-0--|


D-------------------------------------|
A-------------------------------------|
F-------------------------------------|
C--0--0xx1xx1-x3-x3p0--0xx1xx1--------|
G--0--0xx1xx1-x3-x3p0--0xx1xx1--------|
C--0--0xx1xx1-x3-x3p0--0xx1xx1--0000--|
PM                              ----

D---------------------------------------|
A---------------------------------------|
F---------------------------------------|
C--0--0xx1xx1-x3-x3p0--0xx1xx1-xx5p3-0--|
G--0--0xx1xx1-x3-x3p0--0xx1xx1-xx5p3-0--|
C--0--0xx1xx1-x3-x3p0--0xx1xx1-xx5p3-0--|

D-------------------------------------|
A-------------------------------------|
F-------------------------------------|
C--0--0xx1xx1-x3-x3p0--0xx1xx1--------|
G--0--0xx1xx1-x3-x3p0--0xx1xx1--------|
C--0--0xx1xx1-x3-x3p0--0xx1xx1--0000--|
PM                              ----


Outro
D----------------------------------|
A----------------------------------|
F----------------------------------|
C--3p0-3p0-xx1p0-1p0---------------|
G--3p0-3p0-xx1p0-1p0---------------|
C--3p0-3p0-xx1p0-1p0-0-0-0-0-0-0---|
PM                   --------------|

D---------------------------|
A---------------------------|
F---------------------5xx8--|
C--3p0-3p0-xx1p0-1p0xx5xx8--|
G--3p0-3p0-xx1p0-1p0xx3xx6--|
C--3p0-3p0-xx1p0-1p0xx------|


D----------------------------------|
A----------------------------------|
F----------------------------------|
C--3p0-3p0-xx1p0-1p0---------------|
G--3p0-3p0-xx1p0-1p0---------------|
C--3p0-3p0-xx1p0-1p0-0-0-0-0-0-0---|
PM                   --------------|

D---------------------------|
A---------------------------|
F---------------------5xx8--|
C--3p0-3p0-xx1p0-1p0xx5xx8--|
G--3p0-3p0-xx1p0-1p0xx3xx6--|
C--3p0-3p0-xx1p0-1p0xx------|

Just kinda fades away at this point.


9.Glass Shatters(Stone Cold Steve Austin's theme song, WWE)
Drop D(D,A,D,G,B,e)
Intro:Use a little wah on sum parts, listen to the song.
E--------------------------------------------------------|
B----------------------10\-------------------------------|
G------------------------------------------------8\------|
D---0-0--0-1--0-0---------0-0--0-1--0-0------------------|
A---0-0--0-1--0-0---------0-0--0-1--0-0------------------|
D---0-0--0-1--0-0---------0-0--0-1--0-0------------------|
PM  ---  -    ---         ---  -    ---
E--------------------------------------------------------|
B----------------------10\-------------------------------|
G------------------------------------------------8\------|
D---0-0--0-1--0-0---------0-0--0-1--0-0------------------|
A---0-0--0-1--0-0---------0-0--0-1--0-0------------------|
D---0-0--0-1--0-0---------0-0--0-1--0-0------------------|
PM  ---  -    ---         ---  -    ---

After Fill 2
E----------------------------------------------------------------------|
B-------------------------10\------------------------------------------|
G----------------------------------------------------------8\----------|
D---0-0--0-1--0-0--0-----------0-0--0-1--0-0--0------------------------|
A---0-0--0-1--0-0--0-----------0-0--0-1--0-0--0------------------------|
D---0-0--0-1--0-0--0-----------0-0--0-1--0-0--0------------------------|
PM  ----------------           ----------------------------------------|
E----------------------------------------------------------------------|
B-------------------------10\------------------------------16\---------|
G----------------------------------------------------------------------|
D---0-0--0-1--0-0--0-----------0-0--0-1--0-0--0------------------------|
A---0-0--0-1--0-0--0-----------0-0--0-1--0-0--0------------------------|
D---0-0--0-1--0-0--0-----------0-0--0-1--0-0--0------------------------|
PM  ----------------           ----------------------------------------|

Verse
E------------------------------|
B------------------------------|
G------------------------------|
D---0-0--0-1--0-0--0-0--1-3----|
A---0-0--0-1--0-0--0-0--1-3----|
D---0-0--0-1--0-0--0-0--1-3----|
PM  ---------------------------|

Fill
E--------------------------------|
B--------------------------------|
G--------------------------------|
D--------------------------------|
A--------------------------------|
D---6p0--6p0--6p0--6p0-6p0-6p0---|

E---------------------------------------|
B---------------------------------------|
G---------------------------------------|
D---------------------------------1-1---|
A---------------------------------1-1---|
D---6p0--6p0--6p0--6p0-6p0-6p0----1-1---|

Fill 2 (Tremolo Pick This)
E-----------------------------------------------------------------|
B-----------------------------------------------------------------|
G---10------------------------------------------------------------|
D---10//////12p10///////12p10///////12p10//////-------------------|
A-----------------------------------------------------------------|
D-----------------------------------------------------------------|

E-----------------------------------------------------------------|
B---10-------------------------------------------10\--------------|
G---10//////12p10///////12p10///////12p10////////10\--------------|
D-----------------------------------------------------------------|
A-----------------------------------------------------------------|
D-----------------------------------------------------------------|

Interlude (Play this after the pause)
E---------------------------------------------------------------|
B---------------------------------------------------------------|
G---------------------------------------------------------------|
D--0-0--0-1--0-0----------------------0-0--0-1--0-0--0-0--1-3---|
A--0-0--0-1--0-0-play 3 times then----0-0--0-1--0-0--0-0--1-3---|
D--0-0--0-1--0-0----------------------0-0--0-1--0-0--0-0--1-3---|
PM -------------                      --------------------------|

    When Disturbed was recording Ten Thousand Fists, they had finished with 19 finished
recorded songs. They had put 14 of them on the Ten Thousand Fists record and so 5 were
over. Yes ladies and gents, 19-14=5! So then they kinda released Hell on it's own thing
they secretly released Monster and it's hard to find, very rare! So then obviously
and Hell are 2 of the 5 songs that were not released on their third album. So then I had
stumbled upon the information saying that Two Worlds, Sickened(or The Sickened), and
are the other 3. These are not secretly released and not able to get a hold of so no 
cuz no one has ever heard them before, just thought I'd give this info to you guys,
below:

10.Two Worlds:This song is expected to be another cover song by Phil Collins & Genesis.
have a song entitled Two Worlds and they contributed it to Disney's, Tarzan, so it's
that they could have possibly covered it but you Disturbed could turn it into a heavy 
kick-ass song!

11.Criminal:Have no clue what this one is about, possibly about Goerge W. Bush and how
might feel he's a Criminal cuz we rely on him but he's not a good enough president.

12.Sickened(or possibly The Sickened):This song is expected to be a zequel(don't know
to spell it) to their song, Down With the Sickness, yes to that most very unbeleivable,
song, they minght have possibly written a second part to it, can't wait for this one!!


     Yes I know I gave you a little speech at the end but for some of you die-hard
fans, you might go crazy about this like me, so pass the information on. I tabbed this stuff
you guys and now you guys have a supposed idea of the next thing Disturbed will throw at
 give me some credit. For suggestions, leave a comment or e-mail me at irishmatt1992@yahoo.com.
comments
We did not receive enough feedback on this tab! Please rate:
print report bad tab
1 2 3 4 5
6 comments total. Showing first comments.
0 reply
Operator (CA) wrote on June 10 2006, 10:41 pm

I didn't knew that a studio version of Loading the Weapon will be released...anyway, i already got Dehumanized studio version...yay

0 reply
irishmatt1992 wrote on June 15 2006, 04:24 pm

^Could you get this to me? Or get me a place to go find it?

0 reply
killzy wrote on November 26 2006, 08:16 pm

I have Sickened and Two Worlds if anyone wants it.

My Email is killzy@gmail.com

I want to post or [tab]
guest
You may want to rate the tab now too:
select rating
Please do not post tabs as comments. Select "correction" instead!