Oops, an error
Loading. Please wait.

Believe Bass Tab

ver1
ver1

Album

Whole song

Interactive

More versions @911Tabs.com
4,746 views 3 this week
7 commentsread comments
1 2 3 4 5
excellent!
x 7
Autoscroll
+/-
esc
set tempo
stop
Contributor
Hey! There's an official Ultimate Guitar app which is ideal
for learning songs when you're away from computer. Get the app
WARNING: You are trying to view
                                    content from Ultimate-Guitar.com
                                    in an unauthorized application,
                                    which is prohibited.

                                    Please use an official Ultimate
                                    Guitar Tabs application for iPhone,
                                    iPad or Android to access legitimate
                                    chords, guitar, bass, and drum tabs
                                    from Ultimate-Guitar.com database.

                                    Type "ultimate guitar tabs" in Apple
                                    App Store's or Android Market's
                                    search to find the application.
band- Disturbed
Album- Believe

1.PrayerIntro  (0:00)
Gb-----------------------------|
Db-----------------------------|  X3
Ab-5-5--5-5-5-5--5-5--5-5-5-5--|
Db-----------------------------|

Gb---------------------------|
Db---------------------------|
Ab-5-5--5-5-5-5--5-5--5-3----|
Db------------------------0--|

Gb-------------------------------------------------------|
Db----------------------------------------------------7--|
Ab--------------------------------------------------3----|
Db-0-0--0-0-0-0--0-0--0-0-0-0--0-0--0-0-0-0--0-0--0------|

1st Verse  (0:20)
   Another dream that will never come true...
Gb-----------------------------5-5--5-5-5-5--8-8--8-8-8-7----|
Db-7-7--7-7-7-7--7-7--7-7-7-7-----------------------------7--|
Ab-----------------------------------------------------------|
Db-----------------------------------------------------------|

   Another life that I've taken from you...
Gb--------------------------5-5-5--5-5-5-8--8-8-8-5----------------------------5--|
Db-7--7-7-7-7--7-7--7-7-7-7-------------------------7-7--7-7-7-7--7-7--7-7-7-7----|
Ab--------------------------------------------------------------------------------|
Db--------------------------------------------------------------------------------|

  crippled you completely     All the cries you're beginning to hear...
Gb-5--5-5-5-5-8--8--8-8-8-8-7-----------------------------5-5--5-5-5-5--8-8--8-8-7--|
Db-----------------------------7-7--7-7-7-7--7-7--7-7-7-7---------------------------|
Ab----------------------------------------------------------------------------------|
Db----------------------------------------------------------------------------------|

Pre-Chorus  (0:39)     Let me enlighten you
Gb--------------------|---------------------|---------------------|
Db--------------------|---------------------|---------------------|
Ab--------------------|---------------------|---------------------|
Db-7~\--1-1--1--1-3/8-|-7~\---1-1--1--1-3-1-|-7~\--1-1--1--1-3-8--|

This is the way I pray
Gb--------------------|
Db--------------------|
Ab--------------------|
Db-7~\--3-3-3--3-3-3--|

Chorus  (0:49)     Living just isnt hard enough
Gb----------------|----------------------------------------|
Db----------------|----------------------------------------|
Ab----------------|----------------------------------------|
Db-8--8~-8~-8--8\-|-3--3--5--5--5-5\3-3--8--8~-8~-8--8-8\--|

Burn me alive inside
Gb--------------------------------------|
Db--------------------------------------|
AB--------------------------------------|
Db-0--0~-0~-0-0-0--0-0--8--8~-8~-8--8\--|

   Living my life's not hard enough             Take everything away
Gb------------------------------------------------------------------------|
Db------------------------------------------------------------------------|
Ab------------------------------------------------------------------------|
Db-3--3--5--5--5-5\3-3-3--8--8-8-8~-8-8-8-8-8\--0-0-0-0-0~-0-0-0-0-0-0-8--|

Gb---------------------------------------------------------|
Db---------------------------------------------------------|
Ab------------------------------------------------------5--|
Db-8-8--8-8-8-8--8-8--8-8-8-8--8-8--8-8-8-8--8-8--8-8-8----|

(1:13)
Gb-----------------------------|
Db-----------------------------|  X2
Ab-5-5--5-5-5-5--5-5--5-5-5-5--|
Db-----------------------------|

Gb---------------------------|
Db---------------------------|
Ab-5-5--5-5-5-5--5-5--5-3----|
Db------------------------0--|

2nd Verse  (1:23)
Another nightmare about to come true..
Gb-----------------------------|
Db-----------------------------|  X3
Ab-----------------------------|
Db-0--0-0-0-0-0--0--0-0-0-0-0--|

Lost in time on the edge of suffering...
Gb----------------------------|
Db-------------------8-8-7----|
Ab----------------------------|
Db-0--0-0-0-0-0--0-0-------0--|

Another taste of the evil I breed...
Gb-----------------------------|
Db-----------------------------|  X3
Ab-----------------------------|
Db-0--0-0-0-0-0--0--0-0-0-0-0--|

Live in the dark and the world is threatening...
Gb----------------------|
Db----------------------|
Ab----------------------|
Db-0--0-0-0-0-0--0-0-0--|

Pre-Chorus  (1:42)      Let me enlighten you
Gb--------------------|---------------------|---------------------|
Db--------------------|---------------------|---------------------|
Ab--------------------|---------------------|---------------------|
Db-7~\--1-1--1--1-3/8-|-7~\---1-1--1--1-3-1-|-7~\--1-1--1--1-3-8--|

This is the way I pray
Gb--------------------|
Db--------------------|
Ab--------------------|
Db-7~\--3-3-3--3-3-3--|

Chorus  (1:52)     Living just isnt hard enough
Gb----------------|----------------------------------------|
Db----------------|----------------------------------------|
Ab----------------|----------------------------------------|
Db-8--8~-8~-8--8\-|-3--3--5--5--5-5\3-3--8--8~-8~-8--8-8\--|

Burn me alive inside
Gb--------------------------------------|
Db--------------------------------------|
AB--------------------------------------|
Db-0--0~-0~-0-0-0--0-0--8--8~-8~-8--8\--|

   Living my life's not hard enough             Take everything away
Gb------------------------------------------------------------------------|
Db------------------------------------------------------------------------|
Ab------------------------------------------------------------------------|
Db-3--3--5--5--5-5\3-3-3--8--8-8-8~-8-8-8-8-8\--0-0-0-0-0~-0-0-0-0-0-0-8--|

Gb------------------------------------------------------------|
Db------------------------------------------------------------|
Ab-8-8--8-8-8-8--8-8--8-8-8-8--8-8--8-8-8-8--8-8--8-8-8-0~~~--|
Db------------------------------------------------------------|

Interlude  (2:21)
Gb----------------------------------------------------|
Db----------------------------------------------------|
Ab----------------------------------------------------|
Db-2-----------------------14\----------------3-3~-3--|

Bridge  (2:30)
   Return to me                       Leave me no one
Gb------------------------------------------------|
Db------------------------------------------------|
Ab------------------------------------------------|
Db-2-2-0-2--2-2-0-2--0-2-0-2--2--0-2---2--0-2--3--|

   Turn to me                          Cast aside
Gb------------------------------------------------|
Db------------------------------------------------|
Ab------------------------------------------------|
Db-2-2-0-2--2-2-0-2--0-2-0-2--2-2-0-2--3---3~--3--|

   Return to me                       Leave me no one
Gb-----------------------------------------------|
Db-----------------------------------------------|
Ab-----------------------------------------------|
Db-2-2-0-2--2-2-0-2--0-2-0-2--2--0-2--2--0-2--3--|

   Turn to me                    You make me turn away
Gb------------------------------------------------|
Db------------------------------------------------|
Ab------------------------------------------------|
Db-2-2-0-2--2-2-0-2--0-2-0-2--2-2-0-2--3---3~--3--|

Chorus  (2:50)     Living just isnt hard enough
Gb----------------|----------------------------------------|
Db----------------|----------------------------------------|
Ab----------------|----------------------------------------|
Db-8--8~-8~-8--8\-|-3--3--5--5--5-5\3-3--8--8~-8~-8--8-8\--|

Burn me alive inside
Gb--------------------------------------|
Db--------------------------------------|
AB--------------------------------------|
Db-0--0~-0~-0-0-0--0-0--8--8~-8~-8--8\--|

   Living my life's not hard enough             Take everything away
Gb------------------------------------------------------------------------|
Db------------------------------------------------------------------------|
Ab------------------------------------------------------------------------|
Db-3--3--5--5--5-5\3-3-3--8--8-8-8~-8-8-8-8-8\--0-0-0-0-0~-0-0-0-0-0-0-8--|

(3:09)
Gb----------------------|
Db----------------------|
Ab----------------------|
Db-8--8---8~-8--8-8--8--|

Outro-Chorus  (3:13
   Living just isnt hard enough
Gb------------------------------------------------|
Db------------------------------------------------|
Ab------------------------------------------------|
Db-3--3---5~-5--5-5\3-3-3--3\8--8---8~-8--8-8--8--|

Burn me alive inside
Gb--------------------------|
Db--------------------------|
Ab--------------------------|
Db-3--3~--5~-5--5--5\3-3-3--|

   Living my life's not hard enough
Gb----------------------------------------------|
Db----------------------------------------------|
Ab----------------------------------------------|
Db-3--3~--5~-5--5--5\3-3-3--3\8-8--8~-8--8-8-8--|

   Take everything away
Gb--------------------------|
Db--------------------------|
Ab--------------------------|
Db-3--3--5-5--5--5-5-3-3-8--|

Outro  (3:29)
Gb----------------------------------------------------------------------------------------------------|
Db----------------------------------------------------------------------------------------------------|
Ab----------------------------------------------------------------------------------------------------|
Db-8--8-8-8-8--8-8--8-8-8-8--8-8--8-8-8-8--8-8--8-8-8-0--0--0-0-0-0-0--0--0-0-0-0-0--0--0-0-0-0-0--0--|

2.Liberate

Intro  (0:04)
Gb------------------------------|
Db------------------------------|  X7
Ab------------------------------|
Db------------------------------|
Bb-0h2--2-2-2-2--2-2-2-0h2-2-2--|

Gb-------------------------|
Db-------------------------|
Ab-------------------------|
Db-------------------------|
Bb-0h2--2-2-2-2--2-2-2-8\--|

Verse  (0:19)
Liberate your mind...
Gb-----------------------------|
Db-----------------------------|
Ab-----------------------------|
Db-0-2-2-0-2--0h2-2-0h2-2-2----|
Bb-----------------------------|

Gb-------------------------------------------------------|
Db-------------------------------------------------------|
Ab-------------------------------------------------------|
Db-2-3-3--3-3/8--8--8-8-8-8-8-0-2-2--0-2--0h2-2-0h2-2-2--|
Bb-------------------------------------------------------|

Gb---------------------------|
Db---------------------------|
Ab---------------------------|
Db-0-2-2-0-2--0h2-2-0h2-2-2--|
Bb---------------------------|

Gb-----------------------------|
Db-----------------------------|
Ab-----------------------------|
Db-0-2-2-0-2--0h2-2-0h2-2-2----|
Bb-----------------------------|

Gb-------------------------------------------------------|
Db-------------------------------------------------------|
Ab-------------------------------------------------------|
Db-2-3-3--3-3/8--8--8-8-8-8-8-0-2-2--0-2--0h2-2-0h2-2-2--|
Bb-------------------------------------------------------|

Gb---------------------|
Db---------------------|
Ab---------------------|
Db-0-2-2-0-2--0h2-2-0--|
Bb---------------------|

(0:35)
Bold Mother F***er...
Gb------------------------------------------------------------------|
Db------------------------------------------------------------------|
Ab---------------------------------------------2-2-2-2-2-2-2-2-2-2--|
Db-0h2-2-2-2-2-2-2-2-2-2-2-2-2-2-2-1-1-1-1-1-1----------------------|
Bb------------------------------------------------------------------|

Gb--------------------------------------------------------------|
Db--------------------------------------------------------------|
Ab-3-3-3-3-3-3-3-3-3-3-3-3-3-3-3-3------------------------------|
Db---------------------------------5-5-5-5-5-5/9-9-9-9-9-9-9-9--|
Bb--------------------------------------------------------------|

Gb------------------------------------------------------------------|
Db------------------------------------------------------------------|
Ab---------------------------------------------2-2-2-2-2-2-2-2-2-2--|
Db-0h2-2-2-2-2-2-2-2-2-2-2-2-2-2-2-1-1-1-1-1-1----------------------|
Bb------------------------------------------------------------------|

Gb--------------------------------------------------------------|
Db--------------------------------------------------------------|
Ab-3-3-3-3-3-3-3-3-3-3-3-3-3-3-3-3------------------------------|
Db---------------------------------5-5-5-5-5-5/9-9-9-9-9-9-9-9--|
Bb--------------------------------------------------------------|

Gb-----------------------|
Db-----------------------|
Ab------------6----------|
Db-7-7-7----7---7--/15\--|
Bb-----------------------|

Chorus  (0:54)
Waiting...
Gb----------------------------------------------|
Db----------------------------------------------|  X3
Ab----------------------------------------------|
Db-----------------------2-2--2-2--2-2--2-2--2--|
Bb-1-1--1-1--1-1--1-1--1------------------------|

Gb----------------------------------------------|
Db----------------------------------------------|
Ab------------------------2-2--2-2--2-2--2-2----|
Db-0-0--0-0--0-0--0-0--0---------------------5--|
Bb----------------------------------------------|

(1:09)
Gb--------------------------------------------------------|
Db--------------------------------------------------------|
Ab--------------------------------------------------------|
Db-0h2--2-2-2-2--2-2-2-0-2-2-2-0h2--2-2-2--2-2-2-0-2-2-2--|
Bb--------------------------------------------------------|

Gb--------------------------------------------------------|
Db--------------------------------------------------------|
Ab--------------------------------------------------------|
Db-0h2--2-2-2--2-2-2-0-2-2-2-0h2--2-2-2-2--2-2-2-X-X-X-X--|
Bb--------------------------------------------------------|

Verse  (1:18)
Liberate your mind...
Gb-----------------------------|
Db-----------------------------|
Ab-----------------------------|
Db-0-2-2-0-2--0h2-2-0h2-2-2----|
Bb-----------------------------|

Gb-------------------------------------------------------|
Db-------------------------------------------------------|
Ab-------------------------------------------------------|
Db-2-3-3--3-3/8--8--8-8-8-8-8-0-2-2--0-2--0h2-2-0h2-2-2--|
Bb-------------------------------------------------------|

Gb---------------------------|
Db---------------------------|
Ab---------------------------|
Db-0-2-2-0-2--0h2-2-0h2-2-2--|
Bb---------------------------|

Gb-----------------------------|
Db-----------------------------|
Ab-----------------------------|
Db-0-2-2-0-2--0h2-2-0h2-2-2----|
Bb-----------------------------|

Gb-------------------------------------------------------|
Db-------------------------------------------------------|
Ab-------------------------------------------------------|
Db-2-3-3--3-3/8--8--8-8-8-8-8-0-2-2--0-2--0h2-2-0h2-2-2--|
Bb-------------------------------------------------------|

Gb---------------------|
Db---------------------|
Ab---------------------|
Db-0-2-2-0-2--0h2-2-0--|
Bb---------------------|

(1:33)
Bold Mother F***er...
Gb------------------------------------------------------------------|
Db------------------------------------------------------------------|
Ab---------------------------------------------2-2-2-2-2-2-2-2-2-2--|
Db-0h2-2-2-2-2-2-2-2-2-2-2-2-2-2-2-1-1-1-1-1-1----------------------|
Bb------------------------------------------------------------------|

Gb--------------------------------------------------------------|
Db--------------------------------------------------------------|
Ab-3-3-3-3-3-3-3-3-3-3-3-3-3-3-3-3------------------------------|
Db---------------------------------5-5-5-5-5-5/9-9-9-9-9-9-9-9--|
Bb--------------------------------------------------------------|

Gb------------------------------------------------------------------|
Db------------------------------------------------------------------|
Ab---------------------------------------------2-2-2-2-2-2-2-2-2-2--|
Db-0h2-2-2-2-2-2-2-2-2-2-2-2-2-2-2-1-1-1-1-1-1----------------------|
Bb------------------------------------------------------------------|

Gb--------------------------------------------------------------|
Db--------------------------------------------------------------|
Ab-3-3-3-3-3-3-3-3-3-3-3-3-3-3-3-3------------------------------|
Db---------------------------------5-5-5-5-5-5/9-9-9-9-9-9-9-9--|
Bb--------------------------------------------------------------|

Gb-----------------------|
Db-----------------------|
Ab------------6----------|
Db-7-7-7----7---7--/15\--|
Bb-----------------------|

Chorus  (1:52)
Waiting...
Gb----------------------------------------------|
Db----------------------------------------------|  X3
Ab----------------------------------------------|
Db-----------------------2-2--2-2--2-2--2-2--2--|
Bb-1-1--1-1--1-1--1-1--1------------------------|

Gb----------------------------------------------|
Db----------------------------------------------|
Ab------------------------2-2--2-2--2-2--2-2----|
Db-0-0--0-0--0-0--0-0--0---------------------5--|
Bb----------------------------------------------|

(2:07)
Gb-----------------|
Db-----------------|  X2
Ab-----------------|
Db-2-2-2----2-2-2--|
Bb-----------------|

Gb-----------------------|
Db-----------------------|  X2
Ab--------2~-------------|
Db-2-2-2------2-2-2--0~--|
Bb-----------------------|

(2:23)
Gb-----------------------|
Db-----------------------|  X2
Ab--------2~-------------|
Db-2-2-2------2-2-2--0~--|
Bb-----------------------|

(2:31)
Gb-----------------------------------------------------------------------|
Db-----------------------------------------------------------------------|
Ab---------2-2-2-2-------------------------2-2-2-2-----------------------|
Db-2-2-2-2---------2-2-2-2-0-0-0-0-2-2-2-2---------2-2-2-2-0-0-0--0-0-0--|
Bb-----------------------------------------------------------------------|

Chorus  (2:38)
Waiting...
Gb---------------------|
Db---------------------|
Ab---------------------|
Db------2-2-------2-2--|
Bb-1-1-------1-1-------|

Gb---------------------------------------------------------------------|
Db---------------------------------------------------------------------|
Ab---------------------------------------------------------------------|
Db-----------------------2-2--2-2--2-2--2-2--2--0-0--0-0--0-0--0-0--0--|
Bb-1-1--1-1--1-1--1-1--1-----------------------------------------------|

Gb-----------------------------|
Db-----------------------------|
Ab-2-2--2-2--2-2--2-2----------|
Db--------------------5-5-5-5--|
Bb-----------------------------|

Waiting...
Gb----------------------------------------------|
Db----------------------------------------------|  X3
Ab----------------------------------------------|
Db-----------------------2-2--2-2--2-2--2-2--2--|
Bb-1-1--1-1--1-1--1-1--1------------------------|

Gb-------------------------------------------------|
Db-------------------------------------------------|
Ab------------------------0h2-0h2-0h2-0h2----------|
Db-0-0--0-0--0-0--0-0--0------------------5-5-5-5--|
Bb-------------------------------------------------|

Outro  (3:09)
Gb------------------------------|
Db------------------------------|  X8
Ab------------------------------|
Db-0h2--2-2-2-2--2-2-2-0h2-2-2--|
Bb------------------------------|

3.Awaken

Intro  (0:00)
Gb-------------------------------------------------|
Db-------------------------------------------------|
Ab-----8-7\---------------------8-7\---------------|
Db-3-2------3-2--3-2-6-5-5--3-2------3-2--6-5-5-5--|
Bb-------------------------------------------------|

Gb---------------------------------------------------|
Db---------------------------------------------------|
Ab-----8-7\---------------------8-7\-----------------|
Db-3-2------3-2--3-2-6-5-5--3-2------3-2-5-5--X-X-X--|
Bb---------------------------------------------------|

Gb-------------------------------------------------|
Db-------------------------------------------------|
Ab-----8-7\---------------------8-7\---------------|
Db-3-2------3-2--3-2-6-5-5--3-2------3-2--6-5-5-5--|
Bb-------------------------------------------------|

Gb---------------------------------------------------|
Db---------------------------------------------------|
Ab-----8-7\---------------------8-7\-----------------|
Db-3-2------3-2--3-2-6-5-5--3-2------3-2-5-5--X-X-X--|
Bb---------------------------------------------------|

Verse  (0:19)
Stripped of life...
Gb------------------------|
Db------------------------|  X16
Ab-----8-7\---------------|
Db-3-2------3-2--2-2-5-5--|
Bb------------------------|

Chorus  (0:58)
Awaken...                 Feed on your nothing...
Gb-----------------------------------------------------|
Db-----------------------------------------------------|
Ab-----------------------------------------------------|
Db-2-0-3---2-0-3---2-0-3--2-0-0-0-0--0-0-0-0-0--0-0-0--|
Bb-----------------------------------------------------|

Gb------------------------------------------------------|
Db------------------------------------------------------|
Ab------------------------------------------------------|
Db-2-0-3---2-0-3---2-0-3--2--0-0-0-0--0-0-0-0-0--0-0-0--|
Bb------------------------------------------------------|

(1:17)
Gb--------------------------------------------------------|
Db--------------------------------------------------------|
Ab--------------------------------------------------------|
Db-3-2-X-X-X-3-2-X-X-X-X-3-2---3-2-X-X-X-3-2-X-X-X-X-3-2--|
Bb--------------------------------------------------------|

Gb------------------------------------------------|
Db------------------------------------------------|
Ab------------------------------------------------|
Db-3-2-X-X-X-3-2-X-X-X-X-3-2--6/5--5-5--5--5-5-5--|
Bb------------------------------------------------|

Gb--------------------------------------------------------|
Db--------------------------------------------------------|
Ab--------------------------------------------------------|
Db-3-2-X-X-X-3-2-X-X-X-X-3-2---3-2-X-X-X-3-2-X-X-X-X-3-2--|
Bb--------------------------------------------------------|

Gb------------------------------------------------|
Db------------------------------------------------|
Ab------------------------------------------------|
Db-3-2-X-X-X-3-2-X-X-X-X-3-2--6/5--5-5--5--5-5-5--|
Bb------------------------------------------------|

Interlude  (1:36)
Gb------------------------|
Db------------------------|  X4
Ab-----8-7\---------------|
Db-3-2------3-2--2-2-5-5--|
Bb------------------------|

Verse  (1:46)
Stripped of life...
Gb-----------------------------------------|
Db-----------------------------------------|  X6
Ab-----8-7\--------------8-7\--------------|
Db-3-2------3-2-2-2--3-2------3-2-5-5-5-5--|
Bb-----------------------------------------|

(2:15)
With the way you tired...
Gb-------------------------------------------------|
Db-------------------------------------------------|
Ab-----8-7\---------------------8-7\---------------|
Db-3-2------3-2-3-2-/6-5-5--3-2------3-2-/6-5-5-5--|
Bb-------------------------------------------------|

Gb--------------------------------------|
Db--------------------------------------|
Ab-----8-7\-----------------------------|
Db-3-2------3-2-3-2/6-5-5--3-2--3-2--5--|
Bb--------------------------------------|

Chorus  (2:25)
Awaken...
Gb-----------------------------------------------------|
Db-----------------------------------------------------|
Ab-----------------------------------------------------|
Db-2-0-3---2-0-3---2-0-3--2-0-0-0-0--0-0-0-0-0--0-0-0--|
Bb-----------------------------------------------------|

Gb------------------------------------------------------|
Db------------------------------------------------------|
Ab------------------------------------------------------|
Db-2-0-3---2-0-3---2-0-3--2--0-0-0-0--0-0-0-0-0--0-0-0--|
Bb------------------------------------------------------|

(2:45)
Gb--------------------------------------------------------|
Db--------------------------------------------------------|
Ab--------------------------------------------------------|
Db-3-2-X-X-X-3-2-X-X-X-X-3-2---3-2-X-X-X-3-2-X-X-X-X-3-2--|
Bb--------------------------------------------------------|

Gb------------------------------------------------|
Db------------------------------------------------|
Ab------------------------------------------------|
Db-3-2-X-X-X-3-2-X-X-X-X-3-2--6/5--5-5--5--5-5-5--|
Bb------------------------------------------------|

Gb--------------------------------------------------------|
Db--------------------------------------------------------|
Ab--------------------------------------------------------|
Db-3-2-X-X-X-3-2-X-X-X-X-3-2---3-2-X-X-X-3-2-X-X-X-X-3-2--|
Bb--------------------------------------------------------|

Gb----------------------------------------------------|
Db----------------------------------------------------|
Ab----------------------------------------------------|
Db-3-2-X-X-X-3-2-X-X-X-X-3-2--6/5--5-5--5--5-5-5-2~~--|
Bb----------------------------------------------------|

Bridge  (3:09)
There isn't a thing...
Gb-------------------------2---------4-----------|
Db-----------------------------------------------|
Ab------3-3-------2-3-3--0----0-0--2----3-2-2----|
Db-2-2-------2-2------------------------------4--|
Bb-----------------------------------------------|

Gb-------------------------2-----------4------------2--------|
Db------------------------------------------------2----2-----|
Ab------3-3-------2-3-3--0----0-0--2-2----2-2-2-0---------0--|
Db-2-2-------2-2---------------------------------------------|
Bb-----------------------------------------------------------|

Gb-----------------------------------|
Db-----------------------------------|
Ab-2-2-2-2-2-2-2-2-2-2-2-2-22222222--|
Db-----------------------------------|
Bb-----------------------------------|

Chorus  (3:45)
Awaken...
Gb-----------------------------------------------------|
Db-----------------------------------------------------|
Ab-----------------------------------------------------|
Db-2-0-3---2-0-3---2-0-3--2-0-0-0-0--0-0-0-0-0--0-0-0--|
Bb-----------------------------------------------------|

Gb-----------------------------------------------------|
Db-----------------------------------------------------|
Ab-----------------------------------------------------|
Db-2-0-3---2-0-3---2-0-3--2-0-0-0-0--0-0-0-0-0--0-0-0--|
Bb-----------------------------------------------------|

Outro  (4:04)  played fast
Gb----------------------------------|
Db----------------------------------|  X7
Ab----------------------------------|
Db-3-2-2-2-2-2-3-2-2-2-2-2-3-2-2-2--|
Bb----------------------------------|

Gb------------------------------|
Db------------------------------|
Ab------------------------------|
Db-3-2-2-2-2-2-3-2-2-2-2-2-3-2--|
Bb------------------------------|

4.Believe

Intro  (0:00)
Gb------------------------------------------------------------------|
Db----------------------------12------------------------------------|
Ab--------55-5-5-8---------12------------55-5-5-8-------------------|
Db-55-5-5---------8-8-8-12--------55-5-5---------8-8-8-0-0-0-0-0-0--|
Bb------------------------------------------------------------------|

Gb------------------------------------------------------------------|
Db----------------------------12------------------------------------|
Ab--------55-5-5-8---------12------------55-5-5-8-------------------|
Db-55-5-5---------8-8-8-12--------55-5-5---------8-8-8-0-0-0-0-0-0--|
Bb------------------------------------------------------------------|

Verse  (0:15)
Believe...
Gb--------------------------------------------------------------|
Db--------------------------12----------------------------------|  X4
Ab-----------------------12-------------------------------------|
Db-55-5-555-5-588-8-8-12--------55-5-555-5-588-8-8-0-0-0-0-0-0--|
Bb--------------------------------------------------------------|

Chorus  (0:43)
Me...              Penance                             Into
Gb-----------------------------------------------------------|
Db-----------------------------------------------------------|
Ab-----------------------------------------------------------|
Db-8--8--8-8-10-8--3--3--3-6---6--/5-8-5-8-----/5-8-5-8------|
Bb---------------------------6-------------4-4----------4-4--|

Me...
Gb------------------------------------------------------------------|
Db------------------------------------------------------------------|
Ab------------------------------------------------------------------|
Db-8--8--8-8-10-8--3--3--3-6---6--5--5-5-5----------1--1-1-1-3-3-3--|
Bb---------------------------6-------------1--1-1-1-----------------|

All your Believe...
Gb---------------------------------------------------------------------|
Db---------------------------------------------------------------------|
Ab--------------------------------------------------------------1-1-1--|
Db-5--5-5-5----------1--1-1-1-3-3-1--5--5-5-5----------1--1-1-1--------|
Bb----------1--1-1-1--------------------------1--1-1-1-----------------|

Gb----------------------------------------------------------|
Db----------------------------------------------------------|
Ab----------------------------------------------------------|
Db-5--5-5-5----------1--1-1-1-3-1--6-6-6-6-6-6-6-6-6-6-6-6--|
Bb----------1--1-1-1----------------------------------------|

(1:12)
Gb------------------------------------------------------------------|
Db----------------------------12------------------------------------|
Ab--------55-5-5-8---------12------------55-5-5-8-------------------|
Db-55-5-5---------8-8-8-12--------55-5-5---------8-8-8-0-0-0-0-0-0--|
Bb------------------------------------------------------------------|

Gb------------------------------------------------------------------|
Db----------------------------12------------------------------------|
Ab--------55-5-5-8---------12------------55-5-5-8-------------------|
Db-55-5-5---------8-8-8-12--------55-5-5---------8-8-8-0-0-0-0-0-0--|
Bb------------------------------------------------------------------|

Verse  (1:27)
Believe...
Gb--------------------------------------------------------------|
Db--------------------------12----------------------------------|  X4
Ab-----------------------12-------------------------------------|
Db-55-5-555-5-588-8-8-12--------55-5-555-5-588-8-8-0-0-0-0-0-0--|
Bb--------------------------------------------------------------|

Chorus  (1:56)
Me...              Penance                            Into
Gb-----------------------------------------------------------|
Db-----------------------------------------------------------|
Ab-----------------------------------------------------------|
Db-8--8--8-8-10-8--3--3--3-6---6--/5-8-5-8-----/5-8-5-8------|
Bb---------------------------6-------------4-4----------4-4--|

Me...
Gb------------------------------------------------------------------|
Db------------------------------------------------------------------|
Ab------------------------------------------------------------------|
Db-8--8--8-8-10-8--3--3--3-6---6--5--5-5-5----------1--1-1-1-3-3-3--|
Bb---------------------------6-------------1--1-1-1-----------------|

All your Believe...
Gb---------------------------------------------------------------------|
Db---------------------------------------------------------------------|
Ab--------------------------------------------------------------1-1-1--|
Db-5--5-5-5----------1--1-1-1-3-3-1--5--5-5-5----------1--1-1-1--------|
Bb----------1--1-1-1--------------------------1--1-1-1-----------------|

Gb--------------------------------------------------------------|
Db--------------------------------------------------------------|
Ab--------------------------------------------------------------|
Db-5--5-5-5----------1--1-1-1-3-1--6-6-6-6-6-6-6-6-6-6-6-6-0~~--|
Bb----------1--1-1-1--------------------------------------------|

Interlude  (2:32)
Gb----------7---7---------------7---7------|
Db-----7----------7--------7----------7----|  X2
Ab---5---5----5-----5----5---5----5-----5--|
Db-0-------------------0-------------------|
Bb-----------------------------------------|

Bridge  (2:47)
Reap your life...
Gb--------------------------------------------|
Db--------------------------------------------|
Ab-------------5-5-5-5-5-5---------------7-8--|
Db-0-0-0-0-0-0-------------0-0-0-0-0-0-8------|
Bb--------------------------------------------|

Recognize...
Gb--------------------------------------------|
Db--------------------------------------------|
Ab-------------5-5-5-5-5-5---------------8----|
Db-0-0-0-0-0-0-------------0-0-0-0-0-0-8---8--|
Bb--------------------------------------------|

Reap your life...
Gb--------------------------------------------|
Db--------------------------------------------|
Ab-------------5-5-5-5-5-5---------------7-8--|
Db-0-0-0-0-0-0-------------0-0-0-0-0-0-8------|
Bb--------------------------------------------|

Recognize...
Gb--------------------------------------------|
Db--------------------------------------------|
Ab-------------5-5-5-5-5-5---------------8----|
Db-0-0-0-0-0-0-------------0-0-0-0-0-0-8---8--|
Bb--------------------------------------------|

(3:02)
Reap your life...
Gb--------------------------------------------------|
Db--------------------------------------------------|
Ab-------------5-5-5-5-5-5-----------------7-7-8-8--|
Db-0-0-0-0-0-0-------------0-0-0-0-0-0-8-8----------|
Bb--------------------------------------------------|

Recognize...
Gb--------------------------------------------------|
Db--------------------------------------------------|
Ab-------------5-5-5-5-5-5-----------------8-8------|
Db-0-0-0-0-0-0-------------0-0-0-0-0-0-8-8-----8-8--|

Crucified...
Gb--------------------------------------------------|
Db--------------------------------------------------|
Ab-------------5-5-5-5-5-5-----------------7-7-8-8--|
Db-0-0-0-0-0-0-------------0-0-0-0-0-0-8-8----------|
Bb--------------------------------------------------|

Screams tonight...
Gb--------------------------------------------------|
Db--------------------------------------------------|
Ab-------------5-5-5-5-5-5-----------------8-8------|
Db-0-0-0-0-0-0-------------0-0-0-0-0-0-8-8-----8-8--|
Bb--------------------------------------------------|

Interlude  (3:16)
Me...
Gb--------------------------------|
Db----------------------12----12--|
Ab--------55-5-5-8---------12-----|
Db-55-5-5---------8-8-8-----------|
Bb--------------------------------|

Gb--------------------------------------------------------|
Db-------------------------------------------12-12-12-12--|
Ab--------55-5-5-88-8-8-12-12-12-10-10-10-10--------------|
Db-55-5-5-------------------------------------------------|
Bb--------------------------------------------------------|

Gb--------------------14--12-12-12-12-12-12--------------------|
Db-15--------------12-----------------------12-12-12-12-12-12--|
Ab----13--13-13-12---------------------------------------------|
Db-------------------------------------------------------------|
Bb-------------------------------------------------------------|

Gb-15----15----15-17h19---------|
Db----15----15----------19------|
Ab-------------------------17\--|
Db------------------------------|
Bb------------------------------|

Chorus  (3:31)
Me...              Penance                            Into
Gb-----------------------------------------------------------|
Db-----------------------------------------------------------|
Ab-----------------------------------------------------------|
Db-8--8--8-8-10-8--3--3--3-6---6--/5-8-5-8-----/5-8-5-8------|
Bb---------------------------6-------------4-4----------4-4--|

Me...
Gb-------------------------------------------------------------------|
Db-------------------------------------------------------------------|
Ab-------------------------------------------------------------------|
Db-8--8--8-8-10-8--3--3--3-6---6--5--5-5-5----------1--1-1-1--3-3-3--|
Bb---------------------------6-------------1--1-1-1------------------|

All your Beliefs...
Gb---------------------------------------------------------------------|
Db---------------------------------------------------------------------|
Ab--------------------------------------------------------------1-1-1--|
Db-5--5-5-5----------1--1-1-1-3-3-1--5--5-5-5----------1--1-1-1--------|
Bb----------1--1-1-1--------------------------1--1-1-1-----------------|

Gb-------------------------------------------------------------------|
Db-------------------------------------------------------------------|
Ab------------------------------------------------------------1-1-1--|
Db-5--5-5-5----------1--1-1-1-3-1--5--5-5-5----------1--1-1-1--------|
Bb----------1--1-1-1------------------------1--1-1-1-----------------|

(3:59)
All your beliefs
Gb--------------------------------------------|
Db--------------------------------------------|  X3
AB-------------3-3-3-3-3-3-------------3-3----|
Db-5-5-5-5-5-5-------------6-6-6-6-6-6-----6--|
Bb--------------------------------------------|

Gb------------------------------|
Db------------------------------|
Ab------------------------------|
Db-6-6-6-6-6-6-6-6-6-6-6-6-3~~--|
Bb------------------------------|

5.Remember

Intro  (0:09)
Gb------------------------------------------------------|
Db------------------------------------------------------|
Ab------------------------------------------------------|
Db-0-0-3-8-0-0-0-3-7-0-3-0-3--0-0-3-8-0-0-0-3-7-0-3--3--|

Gb---------------------------------------------------------|
Db---------------------------------------------------------|
Ab---------------------------------------------------------|
Db-0-0-3-8-0-0-0-3-7-0-3-0-3--0-0-3-8-0-0-0-3-7-0-0-3-0-7--|

1st Verse  (0:33)
Gb-------------------------------------------------------------------------|
Db-----------------------------------------------------------  ------------|
Ab---------13---------12----------------------13---------12--         -----|
Db-0-12-15----0-12-15----0-12-13-0-15-0-12-15----0-12-15-----         -----|  X2
                                                                       |
Gb-----------------------------------------------------------------   ---|
Db-----------------------------------------------------------------  ----|
Ab---------13---------12----------------------13-------------------------|
Db-0-12-15----0-12-15----0-12-15-0-15-0-12-15----0-12-15-10-10-10--------|

Chorus  (0:53, 1:46, 2:57)
Gb------------------------------------------------------------------------------------------------|
Db------------------------------------------------------------------------------------------------|
Ab----------------------------------------------------------------------------5-5-----------------|
Db-8-8-8-8-8-8~-8-8-8-7-7-7-0-0-0-0-0~-0-0-0-0-0-0-3-3-3-3-3-3~-3-3-3-5-5-0-0-----0~-0-0-0-0-0-0--|

Gb----------------------------------------------------------------------------------------------------|
Db----------------------------------------------------------------------------------------------------|
Ab----------------------------------5-5-5-3-3-3-3-----------------------------------------------------|
Db-8-8-8-8-8~-8-8-8-7-7-0-0-0-0-0-0---------------5-5-5-5-5-5-5-5-5-5-5-5-7-7-7-7-7-7-7-7-7--7-7-7-7--|

Gb-----------------------------------------------------------|
Db-----------------------------------------------------------|
Ab---------13---------12----------------------13---------12--|
Db-0-12-15----0-12-15----0-12-13-0-15-0-12-15----0-12-15-----|

Gb-----------------------------------------------------------------|
Db-----------------------------------------------------------------|
Ab---------13---------12----------------------13-------------------|
Db-0-12-15----0-12-15----0-12-15-0-15-0-12-15----0-12-15-10-10-10--|

2nd Verse  (1:26)
Gb-----------------------------------------------------------|
Db-----------------------------------------------------------|
Ab---------13---------12----------------------13---------12--|
Db-0-12-15----0-12-15----0-12-13-0-15-0-12-15----0-12-15-----|

Gb-----------------------------------------------------------------|
Db-----------------------------------------------------------------|
Ab---------13---------12----------------------13-------------------|
Db-0-12-15----0-12-15----0-12-15-0-15-0-12-15----0-12-15-10-10-10--|

Gb-----------------------------------------------------------|
Db-----------------------------------------------------------|
Ab---------13---------12----------------------13---------12--|
Db-0-12-15----0-12-15----0-12-15-0-15-0-12-15----0-12-15-----|

Bridge  (2:10)
Gb-------------------------------------------|
Db-------------------------------------------|
Ab-1--1-1--1/5~-5-5-5-1----------------------|
Db----------------------3-3-3-0~-0~-0-0-3-0--|

Gb------------------------------------------------------------------|
Db------------------------------------------------------------------|
Ab-1--1-1--1/5~-5-5-5-1-----------------------1--1-1--1/5~-5-5-5-1--|
Db----------------------3-3-3-0~--0--0---0-0------------------------|

Gb-----------------------------------------------------------------|
Db-----------------------------------------------------------------|
Ab-----------------------------------------------------------------|
Db-3-3-3-0~-0~-0-0-3-0-5--5~--5--5--5--5-5-2--2~--2--2--2-2-2/14\--|

Interlude  (2:33)
Gb-------------------------------------------------------------------|
Db-------------------------------------------------------------------|
Ab-------------------------------------------------------------------|
Db-0-0-0-3-8-8-0-0-0-3-7-7-0-3-0-3--0-0-0-3-8-8-0-0-0-3-7-7-0-3-0-3--|

Gb---------------------------|
Db---------------------------|
Ab---------------------------|
Db-0-0-0-3-8-8-0-0-0-5-3--3--|

Gb------------------------------------------------------------------------------------------------|
Db------------------------------------------------------------------------------------------------|
Ab----------------------------------------------------------------------------5-5-----------------|
Db-8-8-8-8-8-8~-8-8-8-7-7-7-0-0-0-0-0~-0-0-0-0-0-0-3-3-3-3-3-3~-3-3-3-5-5-0-0-----0~-0-0-0-0-0-0--|

Gb----------------------------------------------------------------------------------------------------|
Db----------------------------------------------------------------------------------------------------|
Ab----------------------------------5-5-5-3-3-3-3-----------------------------------------------------|
Db-8-8-8-8-8~-8-8-8-7-7-0-0-0-0-0-0---------------5-5-5-5-5-5-5-5-5-5-5-5-7-7-7-7-7-7-7-7-7--7-7-7-7--|

Outro  (3:43)
Gb------------------------------------------------------|
Db------------------------------------------------------|
Ab------------------------------------------------------|
Db-0-0-3-8-0-0-0-3-7-0-3-0-3--0-0-3-8-0-0-0-3-7-0-3--3--|

Gb---------------------------------------------------------|
Db---------------------------------------------------------|
Ab---------------------------------------------------------|
Db-0--0-3-8--0-0-0-3-7--0-3-0-3--0--0-3-8--0-0-0-3-7--0-3--|

6.Intoxication

Intro  (0:00)
Gb---------------------------------------------------------|
Db---------------------------------------------------------|  X4
Ab---------------------------------------------------------|
Db-6-5-2--2-5-3-2-2--5-3-5-2--6-5-2--2-5-3-2-2--3-2-3-0-3--|
Bb---------------------------------------------------------|

Verse (0:19)
Now, your tell me you like it...
Gb---------------------------------------------------------|
Db---------------------------------------------------------|  X4
Ab---------------------------------------------------------|
Db-6-5-2--2-5-3-2-2--5-3-5-2--6-5-2--2-5-3-2-2--3-2-3-0-3--|
Bb---------------------------------------------------------|

Pre-Chorus  (0:38)
high.. What can you take from me...
Gb---------------------------------------|
Db---------------------------------------|
Ab---------------------------------------|
Db-2---2/3--3--3-3/7--2---2/3--3--3-0-0--|
Bb---------------------------------------|

Buy..  Exhilaration.. Laughing..
Gb---------------------------------------------|
Db---------------------------------------------|
Ab---------------------------------------------|
Db-2---2/3--3--3-3/7--10--10--10-5--5--5-5--5--|
Bb---------------------------------------------|

away..  what will you take from me...
Gb---------------------------------------|
Db---------------------------------------|
Ab---------------------------------------|
Db-2---2/3--3--3-3/7--2---2/3--3--3-0-0--|
Bb---------------------------------------|

inside  Intoxication  Now are you feeling
Gb---------------------------------------------|
Db---------------------------------------------|
Ab---------------------------------------------|
Db-2---2/3--3--3-3/7--10--10--10-5--5--5-5--5--|
Bb---------------------------------------------|

Chorus  (0:58)
Enough...         to      villify             Love
Gb------------------------------------------------------------|
Db--------------------------------------------------3----5----|
Ab-------3----3---3/5--3--------2--------2-0--3--3-----3---3--|
Db-3--3-----3---3---------2--2-----2-2-2----------------------|
Bb------------------------------------------------------------|

                                      endowed
Gb---------------------------------------------------------------|
Db-------5-----3-------------------------------------------------|
Ab----5----------------------3----3---3/5-3--------2--------2----|
Db-5--------5-----5-5--3--3-----3---3--------2--2-----2-2-2---2--|
Bb---------------------------------------------------------------|

need...
Gb------------------------|
Db------------------------|
Ab------------------------|
Db-0--0-0-0-0-0--0-0-0-0--|
Bb------------------------|

To carry over...
Gb----------------------------|
Db----------5--5--7-5---------|
Ab--------5-----------7-5-----|
Db-5--5-5-----------------3~--|
Bb----------------------------|

(1:19)
Gb---------------------------------------------------------|
Db---------------------------------------------------------|  X2
Ab---------------------------------------------------------|
Db-6-5-2--2-5-3-2-2--5-3-5-2--6-5-2--2-5-3-2-2--3-2-3-0-3--|
Bb---------------------------------------------------------|

Verse  (1:28)
Gb---------------------------------------------------------|
Db---------------------------------------------------------|  X4
Ab---------------------------------------------------------|
Db-6-5-2--2-5-3-2-2--5-3-5-2--6-5-2--2-5-3-2-2--3-2-3-0-3--|
Bb---------------------------------------------------------|

Pre-Chorus  (1:48)
high.. What can you take from me...
Gb---------------------------------------|
Db---------------------------------------|
Ab---------------------------------------|
Db-2---2/3--3--3-3/7--2---2/3--3--3-0-0--|
Bb---------------------------------------|

Buy..  Exhilaration.. Laughing..
Gb---------------------------------------------|
Db---------------------------------------------|
Ab---------------------------------------------|
Db-2---2/3--3--3-3/7--10--10--10-5--5--5-5--5--|
Bb---------------------------------------------|

away..  what will you take from me...
Gb---------------------------------------|
Db---------------------------------------|
Ab---------------------------------------|
Db-2---2/3--3--3-3/7--2---2/3--3--3-0-0--|
Bb---------------------------------------|

inside  Intoxication  Now are you feeling
Gb---------------------------------------------|
Db---------------------------------------------|
Ab---------------------------------------------|
Db-2---2/3--3--3-3/7--10--10--10-5--5--5-5--5--|
Bb---------------------------------------------|

Chorus  (2:07)
Enough...         to      villify             Love
Gb------------------------------------------------------------|
Db--------------------------------------------------3----5----|
Ab-------3----3---3/5--3--------2--------2-0--3--3-----3---3--|
Db-3--3-----3---3---------2--2-----2-2-2----------------------|
Bb------------------------------------------------------------|

                                      endowed
Gb---------------------------------------------------------------|
Db-------5-----3-------------------------------------------------|
Ab----5----------------------3----3---3/5-3--------2--------2----|
Db-5--------5-----5-5--3--3-----3---3--------2--2-----2-2-2---2--|
Bb---------------------------------------------------------------|

need...
Gb------------------------|
Db------------------------|
Ab------------------------|
Db-0--0-0-0-0-0--0-0-0-0--|
Bb------------------------|

Intoxicating...
Gb---------------------------|
Db---------------------------|
Ab------5-5----5----5-5------|
Db-5--5-----5-----5-----5-5--|
Bb---------------------------|

Enough...         to      villify           Love
Gb-------------------------------------------------------------------|
Db-------------------------------------------------------------------|
Ab-------3----3---3/5--3--------2--------2---------------------------|
Db-3--3-----3---3---------2--2-----2-2-2---2--0--0-0-0-0-0--0-0-0-0--|
Bb-------------------------------------------------------------------|

                                         endowed
Gb------------------------------------------------------------------|
Db----------5--5--7-5-----------------------------------------------|
Ab--------5-----------7-5-------3----3---3/5-3--------2--------2----|
Db-5--5-5-----------------3--3-----3---3--------2--2-----2-2-2---2--|
Bb------------------------------------------------------------------|

need...
Gb------------------------|
Db------------------------|
Ab------------------------|
Db-0--0-0-0-0-0--0-0-0-0--|
Bb------------------------|

To carry over...
Gb----------------------------|
Db----------5--5--7-5---------|
Ab--------5-----------7-5-----|
Db-5--5-5-----------------3~--|
Bb----------------------------|

Interlude  (2:50)
Gb-------------------------------------------------|
Db-------------------------------------------------|  X2
Ab-------------------------------------------------|
Db-2-2-X-X-X-2-2-X-X-X-X-X-2-2-X-X-X-2-2-X-X-X--X--|
Bb-------------------------------------------------|

Outro  (2:59)
Now, you tell me you like it...
Gb---------------------------------------------------|
Db---------------------------------------------------|
Ab---------------------------------------------------|
Db-6/5-2-X-X-X-2-2-X-X-X-X-X-2-2-X-X-X-2-2-X-X-X--X--|
Bb---------------------------------------------------|

Gb------------------------------------------------|
Db------------------------------------------------|
Ab------------------------------------------------|
Db-6/5-2-X-X-X-2-2-X-X-X-X-X-2-2-X-X-X-2-2-X-X-X--|
Bb------------------------------------------------|

7.Rise

Intro  (0:00)  Both riffs X2
Gb---------------------------------------------------------------------|
Db---------------------------------------------------------------------|
Ab---------------------------------------------------------------------|
Db-10h12-0-12-0-12-0-12-12-10h12-10--10h12-0-12-0-12-0-12-12-10h12-10--|
Bb---------------------------------------------------------------------|

Gb-------------------------------------------------------------|
Db-------------------------------------------------------------|
Ab-------------------------------------------------------------|
Db-10h12-0-12-0-12-0-12-12-10h12-10-6-6-6-6/15-15-15-10-10-10--|
Bb-------------------------------------------------------------|


Verse  (0:14)  Both riffs X4
Rise,                  throw away...
Gb---------------------------------------------------------------------|
Db---------------------------------------------------------------------|
Ab---------------------------------------------------------------------|
Db-10h12-0-12-0-12-0-12-12-10h12-10--10h12-0-12-0-12-0-12-12-10h12-10--|
Bb---------------------------------------------------------------------|

Gb-------------------------------------------------------------|
Db-------------------------------------------------------------|
Ab-------------------------------------------------------------|
Db-10h12-0-12-0-12-0-12-12-10h12-10-6-6-6-6/15-15-15-10-10-10--|
Bb-------------------------------------------------------------|

Pre-Chorus  (0:46)
Do you really like...
Gb-----------------|
Db-----------------|  X4
Ab-----------------|
Db-0-0-0-0--0-0-0--|
Bb-----------------|

Chorus  (0:52)
Come     take me away...
Gb----------------------------------------------------------------|
Db-------10-10-10-10-10-------10-10-10-10-10--------10-10-10------|
Ab-5--5--8--8--8--8--8--5--5--8--8--8--8--8---5--5--8--8--8--8-8--|
Db----------------------------------------------------------------|
Bb----------------------------------------------------------------|

Gb----------------------|
Db------------7------5--|
Ab-7--7-7-7-7---7-7-----|
Db----------------------|
Bb----------------------|

Gb----------------------------------------------------------------|
Db-------10-10-10-10-10-------10-10-10-10-10--------10-10-10------|
Ab-5--5--8--8--8--8--8--5--5--8--8--8--8--8---5--5--8--8--8--8-8--|
Db----------------------------------------------------------------|
Bb----------------------------------------------------------------|

Gb----------------------|
Db------------7------5--|
Ab-7--7-7-7-7---7-7-----|
Db----------------------|
Bb----------------------|

Bridge  (1:06)
Gb---------------------------------------------------------|
Db----------------------------------------------------12\--|
Ab---------------------------------------------------------|
Db-8-8-8-8-8-8-8--8--10--0--8-8-8-8-8-8-8--8--10--12-------|
Bb---------------------------------------------------------|

Gb-----------------------------------------------------------------------|
Db-----------------------------------------------------------------------|
Ab-----------------------------------------------------------------------|
Db-8-8-8-8-8-8-8--8--10--0--3-3-3-3-3-3-3-3-3-3-3-3-8-8-8-8-8-8-8-8-8-8--|
Bb-----------------------------------------------------------------------|

(1:21)
Gb---------------------------------------------------------------------|
Db---------------------------------------------------------------------|
Ab---------------------------------------------------------------------|
Db-10h12-0-12-0-12-0-12-12-10h12-10--10h12-0-12-0-12-0-12-12-10h12-10--|
Bb---------------------------------------------------------------------|

Gb-------------------------------------------------------------|
Db-------------------------------------------------------------|
Ab-------------------------------------------------------------|
Db-10h12-0-12-0-12-0-12-12-10h12-10-6-6-6-6/15-15-15-10-10-10--|
Bb-------------------------------------------------------------|

Verse  (1:28)  Both riffs X2
Gb---------------------------------------------------------------------|
Db---------------------------------------------------------------------|
Ab---------------------------------------------------------------------|
Db-10h12-0-12-0-12-0-12-12-10h12-10--10h12-0-12-0-12-0-12-12-10h12-10--|
Bb---------------------------------------------------------------------|

Gb-------------------------------------------------------------|
Db-------------------------------------------------------------|
Ab-------------------------------------------------------------|
Db-10h12-0-12-0-12-0-12-12-10h12-10-6-6-6-6/15-15-15-10-10-10--|
Bb-------------------------------------------------------------|

Pre-Chorus  (1:44)
Do you really like...
Gb-----------------|
Db-----------------|  X4
Ab-----------------|
Db-0-0-0-0--0-0-0--|
Bb-----------------|

Chorus  (1:50)
Come     take me away...
Gb----------------------------------------------------------------|
Db-------10-10-10-10-10-------10-10-10-10-10--------10-10-10------|
Ab-5--5--8--8--8--8--8--5--5--8--8--8--8--8---5--5--8--8--8--8-8--|
Db----------------------------------------------------------------|
Bb----------------------------------------------------------------|

Gb----------------------|
Db------------7------5--|
Ab-7--7-7-7-7---7-7-----|
Db----------------------|
Bb----------------------|

Gb----------------------------------------------------------------|
Db-------10-10-10-10-10-------10-10-10-10-10--------10-10-10------|
Ab-5--5--8--8--8--8--8--5--5--8--8--8--8--8---5--5--8--8--8--8-8--|
Db----------------------------------------------------------------|
Bb----------------------------------------------------------------|

Gb----------------------|
Db------------7------5--|
Ab-7--7-7-7-7---7-7-----|
Db----------------------|
Bb----------------------|

Bridge  (2:06)
Gb---------------------------------------------------------|
Db----------------------------------------------------12\--|
Ab---------------------------------------------------------|
Db-8-8-8-8-8-8-8--8--10--0--8-8-8-8-8-8-8--8--10--12-------|
Bb---------------------------------------------------------|

Gb-----------------------------------------------------------------------|
Db-----------------------------------------------------------------------|
Ab-----------------------------------------------------------------------|
Db-8-8-8-8-8-8-8--8--10--0--3-3-3-3-3-3-3-3-3-3-3-3-8-8-8-8-8-8-8-8-8-8--|
Bb-----------------------------------------------------------------------|

Interlude  (2:20)
Gb-----------------------------------------|
Db-----------------------------------------|  X8
Ab-----------------------------------------|
Db-0-0--3-1-0-0--1-3-0-0--3-1-0-1-0-1-0-3--|
Bb-----------------------------------------|

Gb-----------------------------------------------|
Db-----------------------------------------------|
Ab-----------------------------------------------|
Db-8-8-8-8-8-8-8-8-8-8-8-8-8-8-8-8-8-8-8-8-8-10--|
Bb-----------------------------------------------|

Bridge  (2:53)
Gb---------------------------------------------------------|
Db----------------------------------------------------12\--|
Ab---------------------------------------------------------|
Db-8-8-8-8-8-8-8--8--10--0--8-8-8-8-8-8-8--8--10--12-------|
Bb---------------------------------------------------------|

Gb------------------------------------------------------------------------|
Db------------------------------------------------------------------------|
Ab------------------------------------------------------------------------|
Db-8-8-8-8-8-8-8--8--10--0--3-3-3-3-3-3-3-3-3-3-3-3-8-8-8-8-8-8-8-8-8-10--|
Bb------------------------------------------------------------------------|

(3:08)
I cannot stop this...
Gb-----------------------------|
Db-----------------------------|  X3
Ab-----------------------------|
Db-8-8-8-8-8-8----0-0-0-0-0-0--|
Bb-----------------------------|

(3:19)
Gb------------------------------------|
Db------------------------------------|
Ab------------------------------------|
Db-3-3-3-3-3-3-3-3-3-333888888888888--|
Bb------------------------------------|

Outro  (3:27)   Both riffs X4
Gb---------------------------------------------------------------------|
Db---------------------------------------------------------------------|
Ab---------------------------------------------------------------------|
Db-10h12-0-12-0-12-0-12-12-10h12-10--10h12-0-12-0-12-0-12-12-10h12-10--|
Bb---------------------------------------------------------------------|

Gb-------------------------------------------------------------|
Db-------------------------------------------------------------|
Ab-------------------------------------------------------------|
Db-10h12-0-12-0-12-0-12-12-10h12-10-6-6-6-6/15-15-15-10-10-10--|
Bb-------------------------------------------------------------|

Gb------|
Db------|
Ab------|
Db-12\--
Bb------

8.Mistress

Intro  (0:00)
Gb-----------------------------------------------------------|
Db-----------------------------------------------------------|  X4
Ab-----------------------------------------------------------|
Db-2-2--9-9-9-9-5-5-5-7-7-5-2--2-2--9-9-9-9-5-5-5-7-7-10-10--|
Bb-----------------------------------------------------------|

Verse  (0:20)
 I stand on the brink...
Gb--------------------------------------------------------|
Db--------------------------------------------------------|
Ab--------------------------------------------------------|
Db-2-2----2-2----2-2---2-2----2-2--9-9-9-9-5-5-5-7-7-5-2--|
Bb--------------------------------------------------------|

Gb-----------------------------------------------------------|
Db-----------------------------------------------------------|  X2
Ab-----------------------------------------------------------|
Db-2-2--9-9-9-9-5-5-5-7-7-5-2--2-2--9-9-9-9-5-5-5-7-7-10-10--|
Bb-----------------------------------------------------------|

Chorus  (0:40)
Gb------------------------------------------------------|
Db------------------------------------------------------|  X2
Ab--------------------------------5---------------------|
Db-9\--4-4-4--0--5--5--5-2--9\--4---4--0--0--5--5--5-5--|
Bb------------------------------------------------------|

will decide...
Gb-----------------------------------|
Db-----------------------------------|
Ab-----------------------------------|
Db-6-6--6--6-6-6-5-5--5--5--5-5-5-5--|
Bb-----------------------------------|

Gb-----------------------------------------------------------|
Db-----------------------------------------------------------|  X2
Ab-----------------------------------------------------------|
Db-2-2--9-9-9-9-5-5-5-7-7-5-2--2-2--9-9-9-9-5-5-5-7-7-10-10--|
Bb-----------------------------------------------------------|

Verse  (1:16)
To stand on the brink...
Gb--------------------------------------------------------|
Db--------------------------------------------------------|
Ab--------------------------------------------------------|
Db-2-2----2-2----2-2---2-2----2-2--9-9-9-9-5-5-5-7-7-5-2--|
Bb--------------------------------------------------------|

Gb-----------------------------------------------------------|
Db-----------------------------------------------------------|  X2
Ab-----------------------------------------------------------|
Db-2-2--9-9-9-9-5-5-5-7-7-5-2--2-2--9-9-9-9-5-5-5-7-7-10-10--|
Bb-----------------------------------------------------------|

Chorus  (1:36)
Gb------------------------------------------------------|
Db------------------------------------------------------|  X2
Ab--------------------------------5---------------------|
Db-9\--4-4-4--0--5--5--5-2--9\--4---4--0--0--5--5--5-5--|
Bb------------------------------------------------------|

Gb------------------------------------------|
Db------------------------------------------|
Ab-------------------------------------2~~--|
Db-6--6--6--6--6-6--5--5--5--5--5-5-5-------|
Bb------------------------------------------|

(2:06)
Gb--------------------------------------------------------|
Db----------------------------------2---2--2----2---2--2--|
Ab-2~------------------5---5-5-4--------------------------|
Db--------------------------------------------------------|
Bb--------------------------------------------------------|

               Look at what...
Gb---------------------------------------------|
Db------------------------------------------4--|
Ab---------------------4--2--2--2----2-2-2-----|
Db-5---5--5-5--0---4---------------------------|
Bb---------------------------------------------|

Gb--------------------------------------------------|
Db-5--5------------------------------------------4--|
Ab------------5----------------4-5--2--2--2----2----|
Db-------5--5---5--4--4--4---4---------------4------|
Bb--------------------------------------------------|

                                weakened          as I
Gb------------------------------------------------------|
Db-----------4--5--5------------------------------------|
Ab-2--2--2-----------------5----------------------------|
Db--------------------5--5---5--0--0--0--4--4--4--4--4--|
Bb------------------------------------------------------|

Interlude  (2:46)
   am!            never  awaken
Gb-----------------------------|
Db-----------------------------|
Ab-----------------------------|
Db-2-2-----2-2-----2-2----2-2--|
Bb-----------------------------|

Chorus  (2:56)
Gb------------------------------------------------------|
Db------------------------------------------------------|  X2
Ab--------------------------------5---------------------|
Db-9\--4-4-4--0--5--5--5-2--9\--4---4--0--0--5--5--5-5--|
Bb------------------------------------------------------|

                         to let me in.
Gb--------------------------------------|
Db--------------------------------------|
Ab--------------------------------------|
Db-6--6--6--6--6-6--5--5--5--5-5-5-5-5--|
Bb--------------------------------------|

Outro  (3:21)
Gb-----------------------------------------------------------|
Db-----------------------------------------------------------|  X4
Ab-----------------------------------------------------------|
Db-2-2--9-9-9-9-5-5-5-7-7-5-2--2-2--9-9-9-9-5-5-5-7-7-10-10--|
Bb-----------------------------------------------------------|

Gb------|
Db------|
Ab------|
Db-2-2--|
Bb------|

9.Breathe

Intro  (0:00)
Gb------------------------------------------------|
Db----------7------7-----9-----------7------------|  X2
Ab-0-0--7h9----7h9-----7----0-0--7h9---5-----3----|
Db----------------------------------------3----5--|
Bb------------------------------------------------|

Verse  (0:12)
You will release your life...
Gb------------------------------------------------|
Db----------7------7-----9-----------7------------|  X4
Ab-0-0--7h9----7h9-----7----0-0--7h9---5-----3----|
Db----------------------------------------3----5--|
Bb------------------------------------------------|

again...
Gb----------------|
Db----------------|
Ab-7-7-7-7-7-7-7--|
Db----------------|
Bb----------------|

Pre-Chorus  (0:38)
             From the heart of darkness...
Gb----------------------------------------------------------------------------|
Db----------------------------------------------------------------------------|
Ab----------------------------------------------------------------------------|
Db-3-3-3--3-3-3-3--3-3-3-3--0-0-0--0-0-0-0--0-0-0-0---------------------------|
Bb---------------------------------------------------1-1-1--1-1-1-1--1-1-1-1--|

Gb----------------------------------------------------------------------------------------|
Db----------------------------------------------------------------------------------------|
Ab-----------------------------------------------------------------------5-5-5-5-5-5-5-7--|
Db-3-3-3--3-3-3-3--3-2--3-3-3--3-3-3-3--3-3-3-3--2-2-2--2-2-2-2--2-2-2-2------------------|
Bb----------------------------------------------------------------------------------------|

Chorus  (0:57)
   You will release...
Gb-------------------------------------------------|
Db-------------------------------------------------|
Ab----------------------------------3---3/5\3------|
Db-7-7--5-5--0-0---0--0-0-0--0--3-3---3-------3-3--|
Bb-------------------------------------------------|

Gb-----------------------------------------------------|
Db-----------------------------------------------------|
Ab------5-----5h7-5------------------------------------|
Db-5--5---5-5-------5-3--7-7--5-5--0-0---0--0-0-0-0-0--|
Bb-----------------------------------------------------|

Gb----------------------------------------|
Db----------------------------------------|
Ab------3---3/5\3-----------2---2h3p2-----|
Db-3--3---3-------3-3--2--2---2-------2~--|
Bb----------------------------------------|

(1:16)
Gb-----------------------------------------------|
Db----------7------7-----9-----------7-----------|  X2
Ab-0-0--7h9----7h9-----7----0-0--7h9---5----3----|
Db----------------------------------------3---5--|
Bb-----------------------------------------------|

Verse  (1:27)
You will release your life...
Gb-----------------------------------------------|
Db----------7------7-----9-----------7-----------|  X4
Ab-0-0--7h9----7h9-----7----0-0--7h9---5----3----|
Db----------------------------------------3---5--|
Bb-----------------------------------------------|

again...
Gb----------------|
Db----------------|
Ab-7-7-7-7-7-7-7--|
Db----------------|
Bb----------------|

Pre-Chorus  (1:54)
             From the heart of darkness...
Gb----------------------------------------------------------------------------|
Db----------------------------------------------------------------------------|
Ab----------------------------------------------------------------------------|
Db-3-3-3--3-3-3-3--3-3-3-3--0-0-0--0-0-0-0--0-0-0-0---------------------------|
Bb---------------------------------------------------1-1-1--1-1-1-1--1-1-1-1--|

Gb----------------------------------------------------------------------------------------|
Db----------------------------------------------------------------------------------------|
Ab-----------------------------------------------------------------------5-5-5-5-5-5-5-7--|
Db-3-3-3--3-3-3-3--3-2--3-3-3--3-3-3-3--3-3-3-3--2-2-2--2-2-2-2--2-2-2-2------------------|
Bb----------------------------------------------------------------------------------------|

Chorus  (2:12)
You will release...
Gb-------------------------------------------------|
Db-------------------------------------------------|
Ab----------------------------------3---3/5\3------|
Db-7-7--5-5--0-0---0--0-0-0--0--3-3---3-------3-3--|
Bb-------------------------------------------------|

Gb-----------------------------------------------------|
Db-----------------------------------------------------|
Ab------5-----5h7-5------------------------------------|
Db-5--5---5-5-------5-3--7-7--5-5--0-0---0--0-0-0-0-0--|
Bb-----------------------------------------------------|

Gb----------------------------------------|
Db----------------------------------------|
Ab------3---3/5\3-----------2---2h3p2-----|
Db-3--3---3-------3-3--2--2---2-------2~--|
Bb----------------------------------------|

Gb-------------------------------------------------|
Db-------------------------------------------------|
Ab----------------------------------3---3/5\3------|
Db-7-7--5-5--0-0---0--0-0-0--0--3-3---3-------3-3--|
Bb-------------------------------------------------|

Gb-----------------------------------------------------|
Db-----------------------------------------------------|
Ab------5-----5h7-5------------------------------------|
Db-5--5---5-5-------5-3--7-7--5-5--0-0---0--0-0-0-0-0--|
Bb-----------------------------------------------------|

Gb--------------------------------------|
Db--------------------------------------|
Ab------3---3/5\3-----------2---2-------|
Db-3--3---3-------3-3--2--2---2---2-2~--|
Bb--------------------------------------|

(2:49)  REST

(3:02)
Gb-------------------------------|
Db-------------------------------|
Ab----------0--------------------|
Db-5-5-5-5--------5-5--7-7--5-5--|
Bb-------------------------------|

Chorus  (3:20)
You will release...
Gb-------------------------------------------------|
Db-------------------------------------------------|
Ab----------------------------------3---3/5\3------|
Db-7-7--5-5--0-0---0--0-0-0--0--3-3---3-------3-3--|
Bb-------------------------------------------------|

Gb---------------------------------------------------|
Db---------------------------------------------------|
Ab------5-----5h7-5----------------------------------|
Db-5--5---5-5-------5-3--7-7--5-5--0-0--0--0-0-0--0--|
Bb---------------------------------------------------|

Gb---------------------------------------|
Db---------------------------------------|
Ab------3---3/5\3-----------2---2--------|
Db-3--3---3-------3-3--2--2---2---2-2-2--|
Bb---------------------------------------|

You will release your life...
Gb-------------------------------------------------|
Db-------------------------------------------------|
Ab----------------------------------3---3/5\3------|
Db-7-7--5-5--0-0---0--0-0-0--0--3-3---3-------3-3--|
Bb-------------------------------------------------|

Gb---------------------------------------------------|
Db---------------------------------------------------|
Ab------5-----5h7-5----------------------------------|
Db-5--5---5-5-------5-3--7-7--5-5--0-0--0--0-0-0--0--|
Bb---------------------------------------------------|

Gb---------------------------------------|
Db---------------------------------------|
Ab------3---3/5\3-----------2---2--------|
Db-3--3---3-------3-3--2--2---2---2-2-2--|
Bb---------------------------------------|

Outro  (3:56)
Gb---------------------------------------|
Db---------------------------------------|
Ab------3---3/5\3-----------2---2--------|
Db-3--3---3-------3-3--2--2---2---2-2-2--|
Bb---------------------------------------|

Gb------------------------------------------|
Db------------------------------------------|
Ab------3---3-------------2---2-------------|
Db-3--3---3---3-3-3--2--2---2---2-2-2--7~~--|
Bb------------------------------------------|

10.Bound

Intro  (0:09)
Gb-------------------------------------------------------------------|
Db-------------------------------------------------------------------|  X2
Ab-------------------------------------------------------------------|
Db-3-3-3-------2-2-2-5-5-5-5-5-5-5--3-3-3-------2-2-2-5-5-5-2-2-5-5--|
Bb-------3-3-3----------------------------3-3-3----------------------|

Interlude  (0:19)
Gb------------------------------------------------|
Db------------------------------------------------|
Ab----2-----3--------------2---------------3-3----|
Db-2-----3-------5-5-3--2-----0-3-0-5-5-3------3--|
Bb-------------1----------------------------------|

Gb-----------------------------------------------|
Db-----------------------------------------------|
Ab----2-----3--------------2---------------------|
Db-2-----3-------5-5-3--2-----0-3-0--0--0-5-5-3--|
Bb-------------1---------------------------------|

Gb------------------------------------------------|
Db------------------------------------------------|
Ab----2-----3--------------2---------------3-3----|
Db-2-----3-------5-5-3--2-----0-3-0-5-5-3------3--|
Bb-------------1----------------------------------|

Gb-----------------------------------------------|
Db-----------------------------------------------|
Ab----2-----3--------------2---------------------|
Db-2-----3-------5-5-3--2-----0-3-0--0--0-5-5-3--|
Bb-------------1---------------------------------|

Verse  (0:40)
   oh,   I'm not ready...
Gb---------------------------------------------------------------------------|
Db---------------------------------------------------------------------------|  X2
Ab-7--2-----3---7--2---------------3-3----7--2-----3-----2-------------------|
Db-------3------------0-3-0-5-5-3------3--------3-----2-----0-3-0--0--0-5-3--|
Bb---------------------------------------------------------------------------|

Chorus  (0:50)
Gb----------------------------------------------------------------------|
Db----------------------------------------------------------------------|
Ab---7-7-5------------------7-7-5------------------7-7-5----------------|
Db-2--------0-0-0--0-0-0--2--------0-0-0--0-0-0--2--------0-0-0--0-0-0--|
Bb----------------------------------------------------------------------|

Gb---------------------------------------------------------------|
Db---------------------------------------------------------------|
Ab-------------------7-7-5------------------7-7-5----------------|
Db-5--5--5--5-5----2--------0-0-0--0-0-0--2--------0-0-0--0-0-0--|
Bb--------------0------------------------------------------------|

Gb--------------------------------------------------------------------------|
Db--------------------------------------------------------------------------|
Ab---7-7-5--------------------------------3--3--3--3--3-3-------------------|
Db-2--------0-0-0--0-0-0--5--5--5--5-5-5------------------------------------|
Bb--------------------------------------------------------1--1--1--1--1--1--|

Interlude  (1:25)
Gb-------------------------------------------------------------------|
Db-------------------------------------------------------------------|
Ab-------------------------------------------------------------------|
Db-3-3-3-------2-2-2-5-5-5-2-2-5-5--3-3-3-------2-2-2-7-7-7-7-7-7-7--|
Bb-------3-3-3----------------------------3-3-3----------------------|

Gb----------------------------------|
Db----------------------------------|
Ab----------------------------------|
Db-3-3-3-------2-2-2-5-5-5-2-2-5-5--|
Bb-------3-3-3----------------------|

Verse  (1:34)
oh,   I'm not ready...
Gb---------------------------------------------------------------------------|
Db---------------------------------------------------------------------------|  X2
Ab-7--2-----3---7--2---------------3-3----7--2-----3-----2-------------------|
Db-------3------------0-3-0-5-5-3------3--------3-----2-----0-3-0--0--0-5-3--|
Bb---------------------------------------------------------------------------|

Chorus  (1:54)
Gb----------------------------------------------------------------------|
Db----------------------------------------------------------------------|
Ab---7-7-5------------------7-7-5------------------7-7-5----------------|
Db-2--------0-0-0--0-0-0--2--------0-0-0--0-0-0--2--------0-0-0--0-0-0--|
Bb----------------------------------------------------------------------|

Gb---------------------------------------------------------------|
Db---------------------------------------------------------------|
Ab-------------------7-7-5------------------7-7-5----------------|
Db-5--5--5--5-5----2--------0-0-0--0-0-0--2--------0-0-0--0-0-0--|
Bb--------------0------------------------------------------------|

Gb--------------------------------------------------------------------------|
Db--------------------------------------------------------------------------|
Ab---7-7-5--------------------------------3--3--3--3--3-3-------------------|
Db-2--------0-0-0--0-0-0--5--5--5--5-5-5------------------------------------|
Bb--------------------------------------------------------1--1--1--1--1--1--|

Gb----------------------------------|
Db----------------------------------|
Ab-3--3--3--3--3-3------------------|
Db----------------------------------|
Bb-----------------1--1--1--1--1-1--|

(2:28)
Gb----------------------------|
Db----------------------------|  X8
Ab-2--------2-----------------|
Db---5-4-2----5-4-2--6-3-0-5--|
Bb----------------------------|

(2:48)
Gb-------------------------------------------------------|
Db-------------------------------------------------------|
Ab-2--------2-----------------2--------2-----------------|
Db---5-4-2----5-4-2--6-3-0-5----5-4-2----5-4-2--6-3-0-5--|
Bb-------------------------------------------------------|

Gb--------------------------------------------------|
Db--------------------------------------------------|
Ab-2--------2-----------------2--------2-----2------|
Db---5-4-2----5-4-2--6-3-0-5----5-4-2----5-4---3-3--|
Bb--------------------------------------------------|

Chorus  (2:58)
Gb----------------------------------------------------------------------|
Db----------------------------------------------------------------------|
Ab---7-7-5------------------7-7-5------------------7-7-5----------------|
Db-2--------0-0-0--0-0-0--2--------0-0-0--0-0-0--2--------0-0-0--0-0-0--|
Bb----------------------------------------------------------------------|

Gb---------------------------------------------------------------|
Db---------------------------------------------------------------|
Ab-------------------7-7-5------------------7-7-5----------------|
Db-5--5--5--5-5----2--------0-0-0--0-0-0--2--------0-0-0--0-0-0--|
Bb--------------0------------------------------------------------|

Gb------------------------------------------|
Db------------------------------------------|
Ab---7-7-5----------------------------------|
Db-2--------0-0-0--0-0-0--5--5--5---5-5-----|
Bb---------------------------------------0--|

Outro  (3:17)
Gb---------------------------------------------------------------------|
Db---------------------------------------------------------------------|
Ab---7-7-5------------------7-7-5-----------------7-7-5----------------|
Db-2--------0-0-0--0-0-0--2-------0-0-0--0-0-0--2--------0-0-0--0-0-0--|
Bb---------------------------------------------------------------------|

Gb-----------------|
Db-----------------|
Ab-----------------|
Db-5--5--5--5-5----|
Bb--------------0--|

Gb---------------------------------------------------------------------|
Db---------------------------------------------------------------------|
Ab---7-7-5------------------7-7-5-----------------7-7-5----------------|
Db-2--------0-0-0--0-0-0--2-------0-0-0--0-0-0--2--------0-0-0--0-0-0--|
Bb---------------------------------------------------------------------|

Gb----------------------|
Db----------------------|
Ab----------------------|
Db-5--5--5--5-5----2~~--|
Bb--------------0-------|

11.Devour

Intro  (0:00)
Gb-------2----------------|
Db----4-------------4-----|  X2
Ab-2-------------2-----0--|
Db------------------------|
Bb------------------------|

Verse  (0:14)
             Still enough...
Gb-------2---------------------------2-----------------|
Db----4-------------4-------------4--------------4-----|
Ab-2-------------2-----0-------2--------------2-----0--|
Db-----------------------------------------------------|
Bb-----------------------------------------------------|

Gb------------------------------------------------------|
Db------------------------------------------------------|
Ab-0--2--2h3-2--0--2--2h3-2---0--2--2h3-2--0--2--2h3-2--|
Db------------------------------------------------------|
Bb------------------------------------------------------|

Gb----------------------------------------------------|
Db----------------------------------------------------|
Ab-0--2--2h3-2--0--2--2h3--2--0--2--2h3-2--0--2--2h3--|
Db----------------------------------------------------|
Bb----------------------------------------------------|

(0:42)                                I will devour you...
Gb---------------------------------------|
Db---------------------------------------|
Ab---------------------------------------|
Db------------------------------0--2--2--|
Bb-0-0-0-----0--0-0---0-0-0--------------|

Chorus  (0:49)
Gb------------------------------------------------------------|
Db------------------------------------------------------------|
Ab-----------------5-------------------------4----------------|
Db-/9--7--5--5-5-5---5-5-5--0--0--0-4--4-4-4---4-4/9--7--7-5--|
Bb------------------------------------------------------------|

Gb-----------------------------------------|
Db-----------------------------------------|
Ab-------5---------------------------------|
Db-5-5-5---5-5--2--2--2-4--4-4-4-4-4-4-4/--|
Bb-----------------------------------------|

Gb------------------------------------------------------------|
Db------------------------------------------------------------|
Ab-----------------5-------------------------4----------------|
Db-/9--7--5--5-5-5---5-5-5--0--0--0-4--4-4-4---4-4/9--7--7-5--|
Bb------------------------------------------------------------|

Gb--------------------------------------|
Db--------------------------------------|
Ab-------5------------------------------|
Db-5-5-5---5-5--2--2--2-4--4-4-4-4-4-2--|
Bb--------------------------------------|

(1:17)
Gb----------------------|
Db----------------------|
Ab----------------------|
Db------------7-----10--|
Bb----------------------|

Verse  (1:28)
             Had enough...
Gb-------2---------------------------2-----------------|
Db----4-------------4-------------4--------------4-----|
Ab-2-------------2-----0-------2--------------2-----0--|
Db-----------------------------------------------------|
Bb-----------------------------------------------------|

Gb------------------------------------------------------|
Db------------------------------------------------------|
Ab-0--2--2h3-2--0--2--2h3-2---0--2--2h3-2--0--2--2h3-2--|
Db------------------------------------------------------|
Bb------------------------------------------------------|

Gb----------------------------------------------------|
Db----------------------------------------------------|
Ab-0--2--2h3-2--0--2--2h3--2--0--2--2h3-2--0--2--2h3--|
Db----------------------------------------------------|
Bb----------------------------------------------------|

(1:53)                                I will devour you...
Gb---------------------------------------|
Db---------------------------------------|
Ab---------------------------------------|
Db------------------------------0--2--2--|
Bb-0-0-0-----0--0-0---0-0-0--------------|

Chorus  (2:00)
Gb------------------------------------------------------------|
Db------------------------------------------------------------|
Ab-----------------5-------------------------4----------------|
Db-/9--7--5--5-5-5---5-5-5--0--0--0-4--4-4-4---4-4/9--7--7-5--|
Bb------------------------------------------------------------|

Gb-----------------------------------------|
Db-----------------------------------------|
Ab-------5---------------------------------|
Db-5-5-5---5-5--2--2--2-4--4-4-4-4-4-4-4/--|
Bb-----------------------------------------|

Gb------------------------------------------------------------|
Db------------------------------------------------------------|
Ab-----------------5-------------------------4----------------|
Db-/9--7--5--5-5-5---5-5-5--0--0--0-4--4-4-4---4-4/9--7--7-5--|
Bb------------------------------------------------------------|

Gb-----------------------------------------|
Db-----------------------------------------|
Ab-------5---------------------------------|
Db-5-5-5---5-5--2--2--2-4--4-4-4-4-4-2--0--|
Bb-----------------------------------------|

Bridge  (2:35)
Run to where...
Gb-----------------------------|
Db-----------------------------|  X8
Ab-----------------------------|
Db-----------------------------|
Bb-0--0-0--0-0-0--0-0-0-0-1-1--|

Chorus  (3:03)
Gb------------------------------------------------------------|
Db------------------------------------------------------------|
Ab-----------------5-------------------------4----------------|
Db-/9--7--5--5-5-5---5-5-5--0--0--0-4--4-4-4---4-4/9--7--7-5--|
Bb------------------------------------------------------------|

Gb-----------------------------------------|
Db-----------------------------------------|
Ab-------5---------------------------------|
Db-5-5-5---5-5--2--2--2-4--4-4-4-4-4-4-4/--|
Bb-----------------------------------------|

Gb------------------------------------------------------------|
Db------------------------------------------------------------|
Ab-----------------5-------------------------4----------------|
Db-/9--7--5--5-5-5---5-5-5--0--0--0-4--4-4-4---4-4/9--7--7-5--|
Bb------------------------------------------------------------|

Gb--------------------------------------|
Db--------------------------------------|
Ab-------5------------------------------|
Db-5-5-5---5-5--2--2--2-4--4-4-4-4-4-2--|
Bb--------------------------------------|

Outro  (3:31)
Gb-------------------------------------------------------|
Db----10-----9-------9-10-----10-----9-------9-10--------|  X4
Ab----------------12----------------------12---------10--|
Db-9------9-----9----------9------9-----9---------10-----|
Bb-------------------------------------------------------|

12.Darkness

Intro  (0:00)
Gb----------------------|
Db----------------------|  X2
Ab----------------------|
Db-2-----5-----2-----5--|
Bb----------------------|

Verse  (0:22)
Don't turn away...
Gb----------------------|
Db----------------------|  X2
Ab----------------------|
Db-2-----5-----2-----5--|
Bb----------------------|

Chorus  (0:44)
Darkness cover me...
Gb---------------|
Db---------------|  X3
Ab-3-----2--0----|
Db------------2--|
Bb---------------|

Gb---------------|
Db----------0-0--|
Ab-3-----3-------|
Db---------------|
Bb---------------|

(1:07)
On my own...
Gb----------------------|
Db----------------------|  X2
Ab----------------------|
Db-2-----5-----2-----5--|
Bb----------------------|

Verse  (1:18)
Carry me away...
Gb----------------------|
Db----------------------|  X2
Ab----------------------|
Db-2-----5-----2-----5--|
Bb----------------------|

Chorus  (1:40)
Darkness cover me...
Gb---------------|
Db---------------|  X3
Ab-3-----2--0----|
Db------------2--|
Bb---------------|

Gb---------------|
Db----------0-0--|
Ab-3-----3-------|
Db---------------|
Bb---------------|

Bridge  (2:02)
On my own...
Gb----------|
Db----------|  X4
Ab----------|
Db-2--------|
Bb-------0--|

Interlude  (2:25)
Gb----------------------|
Db----------------------|  X2
Ab----------------------|
Db-2-----5-----2-----5--|
Bb----------------------|

Verse  (2:47)
Gb----------------------|
Db----------------------|
Ab----------------------|
Db-2-----5-----2-----5--|
Bb----------------------|

Chorus  (2:58)
Darkness cover me...
Gb---------------|
Db---------------|  X3
Ab-3-----2--0----|
Db------------2--|
Bb---------------|

Gb---------------|
Db----------0-0--|
Ab-3-----3-------|
Db---------------|
Bb---------------|

Outro  (3:21)
Gb----------------------|
Db----------------------|  X2
Ab----------------------|
Db-2-----5-----2-----5--|
Bb----------------------|

Gb------|
Db------|
Ab------|
Db-2~~--|
Bb------|

All songs are from Disturbed tab book. ENJOY!!!!
comments
print report bad tab
7 comments total. Showing first comments.
0 reply
skate.dr wrote on February 22 2006, 01:45 am

thanks for the tab
im a new comer and i just learnt how to play
i can finaly play along with my favorite band on my mp3
THANKS!!!!

skate.dr

0 reply
Satan Man wrote on May 7 2007, 12:47 pm

apart from the fact Disturbed play a 5 string in all songs it aint bad

0 reply
kirkhamettesp wrote on November 18 2007, 08:30 pm

disturbed do not play five string on all the songs iv got the tab book.

I want to post or [tab]
guest
You may want to rate the tab now too:
select rating
Please do not post tabs as comments. Select "correction" instead!