Oops, an error
Loading. Please wait.

Believe Tab

ver1
ver1

Album

Whole song

Interactive

More versions @911Tabs.com
12,903 views 14 this week
1 commentread comment
1 2 3 4 5
accurate
x 6
Autoscroll
+/-
esc
set tempo
stop
Contributor
Hey! There's an official Ultimate Guitar app which is ideal
for learning songs when you're away from computer. Get the app
WARNING: You are trying to view
                                    content from Ultimate-Guitar.com
                                    in an unauthorized application,
                                    which is prohibited.

                                    Please use an official Ultimate
                                    Guitar Tabs application for iPhone,
                                    iPad or Android to access legitimate
                                    chords, guitar, bass, and drum tabs
                                    from Ultimate-Guitar.com database.

                                    Type "ultimate guitar tabs" in Apple
                                    App Store's or Android Market's
                                    search to find the application.
Band- Disturbed
Album- Believe

1.Prayer

4/4
  Gtr I
|-----------||------------------------------------------|
|-----------||o-----------------------------------------|
|-----------||------------------------------------------|
|-----------||------------------------------------------|
|--------12-||o--12--12-12-12-12-12--12--12-12-12-12-15-|
|---------0-||----0---0-13--0-13--0---0---0-13--0-13--0-|


|-----------------------------------------|
|-----------------------------------------|
|-----------------------------------------|
|-----------------------------------------|
|--15--15-15-15-15-18--18--18-18-17-17-12-|
|---0---0-13--0-13--0---0---0-13--0-13--0-|


  1.
|-----------------------------------------|
|-----------------------------------------|
|-----------------------------------------|
|-----------------------------------------|
|--12--12-12-12-12-12--12--12-12-12-12-15-|
|---0---0-13--0-13--0---0---0-13--0-13--0-|


                              Eb5C5XN.C.(D5)
|----------------------------------------||
|---------------------------------------o||
|----------------------------------------||
|----------------------------------------||
|--15--15-15-15-15-18--18--18-13-10-12--o||
|---0---0-13--0-13--0---0---0-13-10--0---||


  2.
|-----------------------------------------|
|-----------------------------------------|
|-----------------------------------------|
|-----------------------------------------|
|--12--12-12-12-12-12--12--12-12-12-12-15-|
|---0---0-13--0-13--0---0---0-13--0-13--0-|


                              Eb5C5XN.C.(D5)
                                    PM
|--------------------------------------||
|--------------------------------------||
|--------------------------------------||
|--------------------------------------||
|--15--15-15-15-15-18--18--18-13-10----||
|---0---0-13--0-13--0---0---0-13-10-0--||


 1st Verse
---M----------------------------------------------------------|
|-----------------------------|-------------------------------|
|-----------------------------|-------------------------------|
|-----------------------------|-------------------------------|
|-----------------------------|-------------------------------|
|-----------------------------|-------------------------------|
|--0--0-0-0-0-0--0--0-0-0-0-0-|--0--0-0-0-0-0--0--0-0-0-0-0---|


                                                    Eb5C5XN.C.(D5)
---M----------------------------------------------|       PM--|
|-----------------------------|-------------------------------|
|-----------------------------|-------------------------------|
|-----------------------------|-------------------------------|
|-----------------------------|-------------------------------|
|-----------------------------|---------------------13-10-----|
|--0--0-0-0-0-0--0--0-0-0-0-0-|--0--0-0-0-0-0--0--0-13-10-0---|


 --------------------------------|
|--------------------------------|
|--------------------------------|
|--------------------------------|
|--------------------------------|
|--------------------------------|
|--0--0-0-0-0-0--0--0-0-0-0-0----|


---M----------------------------------------------------------|
|-----------------------------|-------------------------------|
|-----------------------------|-------------------------------|
|-----------------------------|-------------------------------|
|-----------------------------|-------------------------------|
|-----------------------------|-------------------------------|
|--0--0-0-0-0-0--0--0-0-0-0-0-|--0--0-0-0-0-0--0--0-0-0-0-0---|


                      Eb5C5XI
 --------------------------------|
|--------------------------------|
|--------------------------------|
|--------------------------------|
|--------------------------------|
|---------------------13-10------|
|--0--0-0-0-0-0--0--0-13-10------|


 Pre-chorus
  $
  A5         Eb5       F5Bb5
|--------------------------|
|--------------------------|
|--------------------------|
|-7-(7)\-x-x-1-1--1--1-3-8-|
|-7-(7)\-x-x-1-1--1--1-3-8-|
|-7-(7)\-x-x-1-1--1--1-3-8-|


  A5         Eb5       F5Eb5 A5         Eb5       F5Bb5
|--------------------------|---------------------------|
|--------------------------|---------------------------|
|--------------------------|---------------------------|
|-7-(7)\-x-x-1-1--1--1-3-1-|-7-(7)\-x-x-1-1--1--1-3-8--|
|-7-(7)\-x-x-1-1--1--1-3-1-|-7-(7)\-x-x-1-1--1--1-3-8--|
|-7-(7)\-x-x-1-1--1--1-3-1-|-7-(7)\-x-x-1-1--1--1-3-8--|


                           1st and 2nd Choruses
  A5         F5(type 2)     Bbsus2
|------------------------||-------------------------------|
|------------------------||-------------------------------|
|------------5-(5)--5----||-------------------------------|
|-7-(7)\-x-x-3-(3)--3-10-||-10-10-(10)-10-(10)-10-10\-x-x-|
|-7-(7)\-x-x-3-(3)--3--8-||--8--8--(8)--8--(8)--8--8\-x-x-|
|-7-(7)\-x-x-3-(3)--3----||--8--8--(8)--8--(8)--8--8\-x-x-|


  F5(type G5            F5(type 2)
|---------------------------|
|---------------------------|
|-5-5-(5)-7-(7)-7-7-7-7s5-5-|
|-3-3-(3)-5-(5)-5-5-5-5s3-3-|
|-3-3-(3)-5-(5)-5-5-5-5s3-3-|
|-3-3-(3)-5-(5)-5-5-5-5s3-3-|


    BbBbsus2                 Dsus2
|----------------------------------|
|----------------------------------|
|----------------------------------|
|-----10-(10)-10-(10)-10-10/-14-14-|
|-3s8--8--(8)--8--(8)--8--8/-12-12-|
|-3s8--8--(8)--8--(8)--8--8/-12-12-|


     D5XII   C5X              Csus2      Bbsus2
|--------------------------------------|-------------------------------|
|--------------------------------------|-------------------------------|
|--------------------------------------|-------------------------------|
|-14-12-(12)-10-(10)-10-10-10-12-12-12-|-10-10-(10)-10-(10)-10-10-x-x--|
|-12-12-(12)-10-(10)-10-10-10-10-10-10-|--8--8--(8)--8--(8)--8--8-x-x--|
|-12-12-(12)-10-(10)-10-10-10-10-10-10-|--8--8--(8)--8--(8)--8--8-x-x--|


  F5(type G5            F5(type 2)BbBbsus2                 Dsus2
|-----------------------------|----------------------------------|
|-----------------------------|----------------------------------|
|-5-5-(5)-7-(7)-7-7-7-7s5-5-5-|----------------------------------|
|-3-3-(3)-5-(5)-5-5-5-5s3-3-3-|-----10-(10)-10-(10)-10-10/-14-14-|
|-3-3-(3)-5-(5)-5-5-5-5s3-3-3-|-3s8--8--(8)--8--(8)--8--8/-12-12-|
|-3-3-(3)-5-(5)-5-5-5-5s3-3-3-|-3s8--8--(8)--8--(8)--8--8/-12-12-|


     D5XII   C5X              Csus2    Bb5
|----------------------------------------|
|----------------------------------------|
|----------------------------------------|
|-14-12-(12)-10-(10)-10-10-10-12-12-12-8-|
|-12-12-(12)-10-(10)-10-10-10-10-10-10-8-|
|-12-12-(12)-10-(10)-10-10-10-10-10-10-8-|


                       To Coda
                                                          N.C.
|-----------------------------|------------------------------|
|-----------------------------|------------------------------|
|-----------------------------|------------------------------|
|--8--8-8-8-8-8--8--8-8-8-8-8-|--8--8-8-8-8-8--8--8-8-8-8----|
|--8--8-8-8-8-8--8--8-8-8-8-8-|--8--8-8-8-8-8--8--8-8-8-8-12-|
|--8--8-8-8-8-8--8--8-8-8-8-8-|--8--8-8-8-8-8--8--8-8-8-8--0-|


|-----------------------------------------|
|-----------------------------------------|
|-----------------------------------------|
|-----------------------------------------|
|--12--12-12-12-12-12--12--12-12-12-12-15-|
|---0---0-13--0-13--0---0---0-13--0-13--0-|


|-----------------------------------------|
|-----------------------------------------|
|-----------------------------------------|
|-----------------------------------------|
|--15--15-15-15-15-18--18--18-18-17-17-12-|
|---0---0-13--0-13--0---0---0-13--0-13--0-|


|-----------------------------------------|
|-----------------------------------------|
|-----------------------------------------|
|-----------------------------------------|
|--12--12-12-12-12-12--12--12-12-12-12-15-|
|---0---0-13--0-13--0---0---0-13--0-13--0-|


                              Eb5C5XN.C.(D5)
                                    PM
|--------------------------------------||
|--------------------------------------||
|--------------------------------------||
|--------------------------------------||
|--15--15-15-15-15-18--18--18-13-10----||
|---0---0-13--0-13--0---0---0-13-10-0--||


 2nd Verse
---M----------------------------------------------------------|
|-----------------------------|-------------------------------|
|-----------------------------|-------------------------------|
|-----------------------------|-------------------------------|
|-----------------------------|-------------------------------|
|-----------------------------|-------------------------------|
|--0--0-0-0-0-0--0--0-0-0-0-0-|--0--0-0-0-0-0--0--0-0-0-0-0---|


                                                    Eb5C5XN.C.(D5)
---M----------------------------------------------|       PM--|
|-----------------------------|-------------------------------|
|-----------------------------|-------------------------------|
|-----------------------------|-------------------------------|
|-----------------------------|-------------------------------|
|-----------------------------|---------------------13-10-----|
|--0--0-0-0-0-0--0--0-0-0-0-0-|--0--0-0-0-0-0--0--0-13-10-0---|


 --------------------------------|
|--------------------------------|
|--------------------------------|
|--------------------------------|
|--------------------------------|
|--------------------------------|
|--0--0-0-0-0-0--0--0-0-0-0-0----|


---M----------------------------|
|-------------------------------|
|-------------------------------|
|-------------------------------|
|-------------------------------|
|-------------------------------|
|--0--0-0-0-0-0--0--0-0-0-0-0---|


                                        D.S. al Coda
 -----------------------------------------------------------|
|-----------------------------|-----------------------------|
|-----------------------------|-----------------------------|
|-----------------------------|-----------------------------|
|-----------------------------|-----------------------------|
|-----------------------------|-----------------------------|
|--0--0-0-0-0-0--0--0-0-0-0-0-|--0--0-0-0-0-0--0--0-0-------|


  &
   Bb5                      D5
                                                      Gtr III
                                                      TP
|-----------------------------|------------|---------------|
|-----------------------------|------------|---------------|
|-----------------------------|------------|---------------|
|--8--8-8-8-8-8--8--8-8-8-8-0-|-(0)--------|-(0)-----------|
|--8--8-8-8-8-8--8--8-8-8-8-0-|-(0)--------|-(0)------x\---|
|--8--8-8-8-8-8--8--8-8-8-8-0-|-(0)--------|-(0)------x\---|


 Interlude
  N.C.(E5)
  Gtr I
|---------------------------|--------------------|
|---------------------------|--------------------|
|---------------------------|--------------------|
|---------------------------|--------------------|
|---------------------------|--------------------|
|-2-2-0-2--2-2-0-2--0-2-0-2-|--2--0-2--2--0-2--3-|


                                        Fsus2
                                        PM------------|
|---------------------------|-------------------------|
|---------------------------|-------------------------|
|---------------------------|-------------------------|
|---------------------------|-----------5-5-(5)-5-----|
|---------------------------|-----------3-3-(3)-3-----|
|-2-2-0-2--2-2-0-2--0-2-0-2-|--2-2-0-2--3-3-(3)-3-----|


   Bridge
    E5  D5E5     D5E5 D5E5D5E5      D5E5    D5E5 Fsus2
||----------------------------|---------------------|
||o---------------------------|---------------------|
||----------------------------|---------------------|
||----------------------------|------------------5--|
||o-2-2-0-2--2-2-0-2--0-2-0-2-|--2--0-2--2--0-2--3--|
||--2-2-0-2--2-2-0-2--0-2-0-2-|--2--0-2--2--0-2--3--|


  E5  D5E5     D5E5 D5E5D5E5       D5E5 Fsus2
|---------------------------|----------------------||
|---------------------------|---------------------o||
|---------------------------|----------------------||
|---------------------------|-----------5-5-(5)-5--||
|-2-2-0-2--2-2-0-2--0-2-0-2-|--2-2-0-2--3-3-(3)-3-o||
|-2-2-0-2--2-2-0-2--0-2-0-2-|--2-2-0-2--3-3-(3)-3--||


 3rd Chorus
  Bbsus2                          F5(type G5V           F5(type 2)
|-------------------------------|---------------------------|
|-------------------------------|---------------------------|
|-------------------------------|-5-5-(5)-7-(7)-7-7-7-7s5-5-|
|-10-10-(10)-10-(10)-10-10\-x-x-|-3-3-(3)-5-(5)-5-5-5-5s3-3-|
|--8--8--(8)--8--(8)--8--8\-x-x-|-3-3-(3)-5-(5)-5-5-5-5s3-3-|
|--8--8--(8)--8--(8)--8--8\-x-x-|-3-3-(3)-5-(5)-5-5-5-5s3-3-|


    BbBbsus2                 Dsus2
|----------------------------------|
|----------------------------------|
|----------------------------------|
|-----10-(10)-10-(10)-10-10/-14-14-|
|-3s8--8--(8)--8--(8)--8--8/-12-12-|
|-3s8--8--(8)--8--(8)--8--8/-12-12-|


     D5XII   C5X              Csus2      Bbsus2
|--------------------------------------|-------------------------------|
|--------------------------------------|-------------------------------|
|--------------------------------------|-------------------------------|
|-14-12-(12)-10-(10)-10-10-10-12-12-12-|-10-10-(10)-10-(10)-10-10-x-x--|
|-12-12-(12)-10-(10)-10-10-10-10-10-10-|--8--8--(8)--8--(8)--8--8-x-x--|
|-12-12-(12)-10-(10)-10-10-10-10-10-10-|--8--8--(8)--8--(8)--8--8-x-x--|


  F5(type G5            F5(type 2)BbBbsus2                 Dsus2
|-----------------------------|----------------------------------|
|-----------------------------|----------------------------------|
|-5-5-(5)-7-(7)-7-7-7-7s5-5-5-|----------------------------------|
|-3-3-(3)-5-(5)-5-5-5-5s3-3-3-|-----10-(10)-10-(10)-10-10/-14-14-|
|-3-3-(3)-5-(5)-5-5-5-5s3-3-3-|-3s8--8--(8)--8--(8)--8--8/-12-12-|
|-3-3-(3)-5-(5)-5-5-5-5s3-3-3-|-3s8--8--(8)--8--(8)--8--8/-12-12-|


     D5XII   C5X              Csus2
|-------------------------------------------|
|-------------------------------------------|
|-------------------------------------------|
|-14-12-(12)-10-(10)-10-10-10-12-12-12-(12)-|
|-12-12-(12)-10-(10)-10-10-10-10-10-10-(10)-|
|-12-12-(12)-10-(10)-10-10-10-10-10-10-(10)-|


  Bb5                                  F5         G5                  F5
  Gtr II
|------------------------------------|---------------------------------------|
|-10-11-(11)---10-(10)-11-----10-----|-10-11-(11)-10-(10)-13-13-13-10---13---|
|--------------------------------10--|---------------------------------------|
|------------------------------------|---------------------------------------|
|------------------------------------|---------------------------------------|
|------------------------------------|---------------------------------------|
|
| Gtr I
|         PM-|          PM--|                              PM------------------|
|------------------------------------|-----------------------------------------|
|------------------------------------|-----------------------------------------|
|------------------------------------|-----------------------------------------|
|--8--8---8--8--8--(8)--8-8-8--8--8\-|--3--3--(3)--5--(5)--5--5--5--5s3--3-3---|
|--8--8---8--8--8--(8)--8-8-8--8--8\-|--3--3--(3)--5--(5)--5--5--5--5s3--3-3---|
|--8--8---8--8--8--(8)--8-8-8--8--8\-|--3--3--(3)--5--(5)--5--5--5--5s3--3-3---|


       Bb5
||--------------------------------------|
||o-10---11-(11)---10-(10)-11-----10----|
||-----------------------------------10-|
||--------------------------------------|
||o-------------------------------------|
||--------------------------------------|
|
|             PM-|            PM|
||--------------------------------------|
||o-------------------------------------|
||--------------------------------------|
||---3s8--8---8--8--8--(8)--8-8-8--8--8-|
||o--3s8--8---8--8--8--(8)--8-8-8--8--8-|
||---3s8--8---8--8--8--(8)--8-8-8--8--8-|


  F5         G5                  F5
|----------------------------------------||
|-10-11-(11)-10-(10)-13-13-13-10---13---o||
|----------------------------------------||
|----------------------------------------||
|---------------------------------------o||
|----------------------------------------||
|
|                        PM|
|----------------------------------------||
|---------------------------------------o||
|----------------------------------------||
|--3--3--(3)--5--(5)--5--5--5--5s3--3-3--||
|--3--3--(3)--5--(5)--5--5--5--5s3--3-3-o||
|--3--3--(3)--5--(5)--5--5--5--5s3--3-3--||


     Bb5
|-------------------------------------|
|-10---11-(11)---10-(10)-11-----10----|
|----------------------------------10-|
|-------------------------------------|
|-------------------------------------|
|-------------------------------------|
|
|           PM-|            PM|
|-------------------------------------|
|-------------------------------------|
|-------------------------------------|
|--3s8--8---8--8--8--(8)--8-8-8--8--8-|
|--3s8--8---8--8--8--(8)--8-8-8--8--8-|
|--3s8--8---8--8--8--(8)--8-8-8--8--8-|


                                           Outro
  F5         G5V                 F5    Bb5
|----------------------------------------||-------------------------------|
|-10-11-(11)-10-(10)-13-13-13-10---13----||-------------------------------|
|----------------------------------------||-------------------------------|
|----------------------------------------||-------------------------------|
|----------------------------------------||-------------------------------|
|----------------------------------------||-------------------------------|
|
|                        PM|
|----------------------------------------||-------------------------------|
|----------------------------------------||-------------------------------|
|----------------------------------------||-------------------------------|
|--3--3--(3)--5--(5)--5--5--5--5s3--3/-8-||--8--8-8-8-8-8--8--8-8-8-8-8---|
|--3--3--(3)--5--(5)--5--5--5--5s3--3/-8-||--8--8-8-8-8-8--8--8-8-8-8-8---|
|--3--3--(3)--5--(5)--5--5--5--5s3--3/-8-||--8--8-8-8-8-8--8--8-8-8-8-8---|


                            D5
  Gtr I
--------------------------------|
|-------------------------------|
|-------------------------------|
|-------------------------------|
|--8--8-8-8-8-8--8--8-8-8-8-----|
|--8--8-8-8-8-8--8--8-8-8-8-0---|
|--8--8-8-8-8-8--8--8-8-8-8-0---|


 --M---------------------------------------------------|
|-----------------------------|------------------------|
|-----------------------------|------------------------|
|-----------------------------|------------------------|
|-----------------------------|------------------------|
|--0--0-0-0-0-0--0--0-0-0-0-0-|--0--0-0-0-0-0--0-------|
|--0--0-0-0-0-0--0--0-0-0-0-0-|--0--0-0-0-0-0--0-------|

2.Liberate

INTRO:
|----------------------|
|----------------------|
|----------------------|
|----------------------|
|-0h2-2222-222-0h2-0h2-|
|-0h2-2222-222-0h2-0h2-|

VERSE:
|---------------------------------------------------------------|
|---------------------------------------------------------------|
|---------------------------------------------------------------|
|---------------------------------------------------------------|
|---------------------------------------------------------------|
|-52-2-02-222222233-3-3-388-8-8-8-82-2-02-222222252-2-02-222222-|

|------------------------------------------------------------|
|------------------------------------------------------------|
|------------------------------------------------------------|
|------------------------------------------------------------|
|--------------------------------------------------------5-0-|
|-52-2-02-222222233-3-3-388-8-8-8-82-2-02-222222252-2-02-5-0-|

BRIDGE:
|----------------------------------------------------------------|
|----------------------------------------------------------------|
|----------------------------------------------------------------|
|----------------------------------------------------------------|
|----------------------------------------------------------------|
|-22222222222222220000009999999910101010101010101010101010101010-|

|----------------|
|----------------|
|----------------|
|----------------|
|----------------|
|-55555599999999-|

FILL:
|-----------------|
|-----------------|
|-----------------|
|-----------------|
|-7-7-7--XX-7-6-6-|
|-7-7-7--XX-7-7-7-|

CHORUS:
|------------------------|    |-------------------------|
|------------------------|play|-------------------------|
|------------------------| 3X |-------------------------|
|-5-55-4-44-4--5-5-4-2---|then|-7-77-7-77-7-4-44-4-44---|
|-3-33-3-33-3--2-2-2-2-5-|    |-5-55-5-55-5-2-22-2-22-5-|
|--------------2-2-2-2-2-|    |-----------------------5-|

INTERLUDE:
|---------------------------------------------------------|
|---------------------------------------------------------|
|-----------2-------------<7>-----------2-----------------|
|---------3------------<7>------------3------------<7>----|
|-2-2-2-2-----2-2-2-<7>-------2-2-2-2-----2-2-2-<7>---<7>-|
|-2-2-2-------2-2-2-----------2-2-2-------2-2-2-----------|

INTERLUDE 2:
|--------------------------------------|
|--------------------------------------|
|--------------2-------------------<7>-|
|------------3------------<7>---<7>----|
|-2-2-2-XX-2-----2-2-2-XX----<7>-------|
|-2-2-2-XX-------2-2-2-XX--------------|

|--------------------------------------|
|--------------------------------------|
|--------------2-----------------------|
|------------3------------<7>---<7>----|
|-2-2-2-XX-2-----2-2-2-XX----<7>---<7>-|
|-2-2-2-XX-------2-2-2-XX--------------|

CHORUS FILL:
|----------------|
|----------------|
|----------------|
|-5--4--5--4-2---|
|-3--3--2--2-2-5-|
|-------2--2-2-2-|

3.Awaken

INTRO:
|------------------------------------------------------|
|------------------------------------------------------|
|--------------------------------------------------<5>-|
|--------/9--------------------------/9----------------|
|-3-2--2-/7--3-2--3-2--3-5--0-3-2--2-/7--3-2--3-5-5----|
|-3-2--2-----3-2--3-2--3-5--0-3-2--2-----3-2--3-5-5----|

|--------------------------------------------------------|
|--------------------------------------------------------|
|--------------------------------------------------------|
|--------/9--------------------------/9------------------|
|-3-2--2-/7--3-2--3-2--3-5--0-3-2--2-/7--3-2--3-5--5-5-5-|
|-3-2--2-----3-2--3-2--3-5--0-3-2--2-----3-2--3-5--5-5-5-|
pm                                                 . . .

VERSE:
|---------------------------------|
|---------------------------------|
|---9------9-------12-------12----|
|-9---XX-8---XX-11----XX-14----XX-|
|-7---XX-7---XX-10----XX-10----XX-|
|---------------------------------|

CHORUS:
|-----------------------------------------------------|
|-----------------------------------------------------|
|--------------4-4-4-0-0-5-5--------------4-4-4-0-0---|
|---0-0-0-0--------------------0-0-0-0--------------0-|
|-2---------3----------------2---------3--------------|
|-2---------3----------------2---------3--------------|

|-------------------------------------------------------|
|-------------------------------------------------------|
|--------------4-4-4-0-0-5-5----------------------------|
|---0-0-0-0---------------------------------------------|
|-2---------3----------------2--0-0-0-0--0-0-0-0-0--0-0-|
|-2---------3----------------2--0-0-0-0--0-0-0-0-0--0-0-|
pm                              . . . .  . . . . .  . .

BRIDGE:
|-----------------------------|
|-----------------------------|
|-----------------------------|
|-3-2-X-X-X-0-3-2-X-X-X-0-3-2-|
|-3-2-X-X-X-0-3-2-X-X-X-0-3-2-|
|-3-2-X-X-X-0-3-2-X-X-X-0-3-2-|

BRIDGE B:
|---------------------------|
|---------------------------|
|---------------------------|
|-5-5--5--5-5-5--5--5-5-5-5-|
|-5-5--5--5-5-5--5--5-5-5-5-|
|-5-5--5--5-5-5--5--5-5-5-5-|
pm                  . . .

BRIDGE B:
|---------------------|
|---------------------|
|---------------12----|
|-9--9-8--8-11-----14-|
|-7--7-7--7-10-----10-|
|---------------------|

VERSE 2: (palm mute) (* - play 1st time only)
|-----------------------------------------|
|-----------------------------------------|
|-----------------------------------------|
|-----------------------------------------|
|-----------------------------------------|
|-*0*-3-2--3-2--3-2--XX-3-2--3-2--3-5-5-5-|

VERSE 2 FILL:
|---|
|---|
|---|
|---|
|-2-|
|-2-|

VERSE 2B:
|--------------------------------------------------------|
|--------------------------------------------------------|
|--------------------------------------------------------|
|--------------------------------------------------------|
|-----------/7--------------------------/7---------------|
|-XX-3-2--2-----3-2--3-5--5-5--0-3-2--2-----3-2--3-5-5-5-|
pm   . .  .  .  . .  . .  . .  . . .  .  .  . .  . . . .

|-----------------------------------------------------|
|-----------------------------------------------------|
|-----------------------------------------------------|
|-----------------------------------------------------|
|--------/7--------------------------/7---------------|
|-3-2--2-----3-2--3-5--5-5--0-3-2--2-----3-2--3-5-5-5-|
pm. .  .  .  . .  . .  . .

INTERLUDE:
|----0--0------0--0------0--0-----0--0----------0----------0-----|
|---------0---------0---------0--------0-----1----1-----3----3---|
|--------------------------------------------2----------4------4-|
|-----------5-------------------5------------2----------4--------|
|-2---------3---------2---------3---------0----------2-----------|
|-2-------------------2------------------------------------------|

INTERLUDE 2: (gradually release palm mute)
|-------0------------------------------------|
|----1----1----------------------------------|
|----2-------4-4-4-4-4-4-4-4-4-4-4-4-4-4-4-4-|
|----2-------4-4-4-4-4-4-4-4-4-4-4-4-4-4-4-4-|
|-0----------2-2-2-2-2-2-2-2-2-2-2-2-2-2-2-2-|
|--------------------------------------------|
pm           . . . . . . . . . . . . . . . .

4.Believe

intro

----------------------------------------------------------------|
----------------------------------------------------------------|
----------------------------------------------------------------|
-7-7--7--7-10-10---10---10-10-10--10--10------------------------|
-5-5--5--5-5--5----5----5--8--8---8---8---13--13--12/-----------|
-5-5--5--5-5--5----5----5--8--8---8---8---12--12--12/-----------|
 >         >               >              >       >
PM
--------------------------------------------|
--------------------------------------------|
--------------------------------------------|
-10-10---10---10----------------------------|
-8--8----8----8-----------------------------|
-8--8----8----8---0-0-0-0-0-0---------------|

chorus

----------------------------------------------------------------|
----------------------------------------------------------------|
----------------------------------------------------------------|
-----------------------3---3-3-3----------------8-----8---------|
-8---8-8-8-12-12---8---3---3-3-3/--6--8--6/--5--8--5--8--1-1----|
-8---8-8-8-8--8----8---3---3-3-3/--6--6--6/--5-----5-----1-1----|
 >                     >           >         >        >

interlude


--------------------------------------------|
--------------------------------------------|
--------------------------------------------|
--------------------------------------------|
--------12-10-------7-5-------5-3-0-5/8-----|
0----0--------0--0------0--0----------------|


----------------------------------------------|
----------------------------------------------|
----------------------------------------------|
----------------------------------------------|
----------12-10-------10-8--------8-6-5-------|
-0-----0--------0--0-------0---0----------/10-|

outro
    PM-----        pm-------      pm-----------------------------|
-----------------------------------------------------------------|
-----------------------------------------------------------------|
-----------------------------------------------------------------|
------------------------------------------3--3--1----------------|
-5--5--------10--10-----------1--1--------3--3--1----------------|
-5--5-5--5-5-10--10-10-10-10--1--1-1-1-1--3--3--1----------------|

5.Remember

INTRO:
|----------------------------------------------------------|
|----------------------------------------------------------|
|----------------------------------------------------------|
|-0--2-3-8--2-0-2-3-7--2-3-2-3-0--2-3-8--2-0-2-3-7--0-2--3-|
|-0--2-3-8--2-0-2-3-7--2-3-2-3-0--2-3-8--2-0-2-3-7--0-2--3-|
|-0--2-3-8--2-0-2-3-7--2-3-2-3-0--2-3-8--2-0-2-3-7--0-2--3-|
pm   . .    . . . .    . . . .    . .    . . . .

VERSE:
|---------------------------------------------------------------|
|---------------------------------------------------------------|
|---------------------------------------------------------------|
|---------------------------------------------------------------|
|----------13----------12------------------------13----------12-|
|-0--12-15-----0-12-15-----0-12-15-0-15-0--12-15-----0-12-15----|

|---------------------------------------------------------------------|
|---------------------------------------------------------------------|
|---------------------------------------------------------------------|
|---------------------------------------------------------------------|
|----------13----------12------------------------13----------10-10-10-|
|-0--12-15-----0-12-15-----0-12-15-0-15-0--12-15-----0-12-15-10-10-10-|

CHORUS: (^ = bend 1/2 step, ^^ = bend 1 step)
|---------------------------------------------------------|
|---------------------------------------------------------|
|---------------------------------------------------------|
|---10-7---------------10-7---------------10-7------------|
|-8------10-8-7-5-3--8------10-8-7-5-3--8------10-8-7-5-3-|
|---------------------------------------------------------|

|----------------------------------------------------|
|----------------------------------------------------|
|--------------------5-5-5-5-5-5---------------------|
|---10-7-------------3-3-3-3-3-3-----5-5-3-3---------|
|-8------10-8-7-5-3--3-3-3-3-3-3-3-5---------5-5-3h5-|
|----------------------------------------------------|

|-----------------------------------------|
|-----------------------------------------|
|-----------------------------------------|
|---10-7----------------------------10-10-|
|-8------10-8-7-5/7-8-8-10-10-12-12-------|
|-----------------------------------------|

|----------------------------------------------------------------|
|----------------------------------------------------------------|
|-10-10-10-----10-10-10-----10-10--------10-10-10----10-10-10----|
|----------10-----------10--------10/12-----------12----------12-|
|----------------------------------------------------------------|
|----------------------------------------------------------------|

|------------------------------------------------------|
|------------------------------------------------------|
|-10-10--------12-14-12^---------------12-14-12^-12-10-|
|-------10/12------------12--10--12p10-----------------|
|------------------------------------------------------|
|------------------------------------------------------|

CHORUS END 1:
|--------------------------------------------------|
|--------------------------------------------------|
|-14^^(14)~~---------------------------------------|
|--------------12^^(12)~~--------------------------|
|---------------------------12^(12)~~--------------|
|---------------------------------------12^^(12)~~-|

VERSE 2:
|---------------------------------------------------------------|
|---------------------------------------------------------------|
|---------------------------------------------------------------|
|---------------------------------------------------------------|
|----------13----------12------------------------13----------12-|
|-0--12-15-----0-12-15-----0-12-15-0-15-0--12-15-----0-12-15----|
pm   .. ..     . .. ..     . .. .. . ..    .. ..     . .. ..

|---------------------------------------------------------------------|
|---------------------------------------------------------------------|
|---------------------------------------------------------------------|
|---------------------------------------------------------------------|
|----------13----------12------------------------13----------10-10-10-|
|-0--12-15-----0-12-15-----0-12-15-0-15-0--12-15-----0-12-15-10-10-10-|
pm   .. .. ..  . .. .. ..  . .. .. . ..    .. .. ..  . .. ..

CHORUS END 2:
|---------|
|---------|
|-14^^----|
|------12-|
|---------|
|---------|

BRIDGE:
|------------------------------------------------|
|------------------------------------------------|
|------------------------------------------------|
|-8---X-X-8/12--12--12-12--8--3-3-3-0--0--0--3-0-|
|-8---X-X-8/12--12--12-12--8--3-3-3-0--0--0--3-0-|
|-8---X-X-8/12--12--12-12--8--3-3-3-0--0--0--3-0-|

|---------------------------------------------|
|---------------------------------------------|
|---------------------------------------------|
|-8---X-X-8/12--12--12-12--8--3--0--0--0--0-0-|
|-8---X-X-8/12--12--12-12--8--3--0--0--0--0-0-|
|-8---X-X-8/12--12--12-12--8--3--0--0--0--0-0-|

|------------------------------------------------|
|------------------------------------------------|
|------------------------------------------------|
|-8---X-X-8/12--12--12-12--8--3-3-3-0--0--0--3-0-|
|-8---X-X-8/12--12--12-12--8--3-3-3-0--0--0--3-0-|
|-8---X-X-8/12--12--12-12--8--3-3-3-0--0--0--3-0-|

|----------------------------------|
|----------------------------------|
|----------------------------------|
|-5--5--5--5--5-5--2--2--2--2--2-2-|
|-5--5--5--5--5-5--2--2--2--2--2-2-|
|-5--5--5--5--5-5--2--2--2--2--2-2-|

INTERLUDE:
|-----------------------------------------------------------------|
|-----------------------------------------------------------------|
|-----------------------------------------------------------------|
|-----------------------------------------------------------------|
|-0-0-2-3-8-8-2-0-2-3-7-7-2-3-2-3-0-0-2-3-8-8-2-0-2-3-7-7-2-3-2-3-|
|-0-0-2-3-8-8-2-0-2-3-7-7-2-3-2-3-0-0-2-3-8-8-2-0-2-3-7-7-2-3-2-3-|
pm. . . .     . . . .     . . . . . . . .     . . . .     . . . .

CHORUS END 3:
|---------|
|---------|
|-14^^-14-|
|---------|
|---------|
|---------|

|----------------|
|-----------12^^-|
|-14^^-14--------|
|----------------|
|----------------|
|----------------|

6.Intoxication

INTRO:
|--------------------------------------------------------|
|--------------------------------------------------------|
|--------------------------------------------------------|
|--------------------------------------------------------|
|-6-5-2--2-5-3-2-2--2-2-5-2--6-5-2--2-5-3-2-2--2-2-3-0-0-|
|-6-5-2--2-5-3-2-2--2-2-5-2--6-5-2--2-5-3-2-2--2-2-3-0-0-|

INTRO 2:
|--------------------------------------------------------|
|--------------------------------------------------------|
|--------------------------------------------------------|
|-6-5-2--2-5-3-2-2--2-2-5-2--6-5-2--2-5-3-2-2--2-2-3-0-0-|
|-6-5-2--2-5-3-2-2--2-2-5-2--6-5-2--2-5-3-2-2--2-2-3-0-0-|
|-6-5-2--2-5-3-2-2--2-2-5-2--6-5-2--2-5-3-2-2--2-2-3-0-0-|

VERSE:
|--------------------------------------------------------|
|--------------------------------------------------------|
|--------------------------------------------------------|
|--------------------------------------------------------|
|--------------------------------------------------------|
|-6-5-2--2-5-3-2-2--2-2-5-2--6-5-2--2-5-3-2-2--2-2-3-0-0-|

BRIDGE:
|-------------------------------------------------------------|
|-------------------------------------------------------------|
|-------------------------------------------------------------|
|-2-2-2-XX-2/3--3-X-3/7-7--2-2-2-XX-2/3--3--0-0--2-2-2-XX-2/3-|
|-2-2-2-XX-2/3--3-X-3/7-7--2-2-2-XX-2/3--3--0-0--2-2-2-XX-2/3-|
|-2-2-2-XX-2/3--3-X-3/7-7--2-2-2-XX-2/3--3--0-0--2-2-2-XX-2/3-|
pm                                          . .

|---------------------------|
|---------------------------|
|---------------------------|
|-3-X-3/7-7-/10---/5-XX-5-5-|
|-3-X-3/7-7-/10---/5-XX-5-5-|
|-3-X-3/7-7-/10---/5-XX-5-5-|

CHORUS: (guitar 1)
|--------------------------------------------------------------|
|--------------------------------------------------------------|
|--------------------------------------------------------------|
|-3-3-3-3-33-2-2-2-2-22-10-10-10-10-1010-5-5-5-5-55-3-3-3-3-33-|
|-3-3-3-3-33-2-2-2-2-22-10-10-10-10-1010-5-5-5-5-55-3-3-3-3-33-|
|-3-3-3-3-33-2-2-2-2-22-10-10-10-10-1010-5-5-5-5-55-3-3-3-3-33-|

|--------------------------------------------------------|
|--------------------------------------------------------|
|--------------------------------------------------------|
|-2-2-2-2-22-0-----------------------5--5555-5-5-5h7-5-3-|
|-2-2-2-2-22-0--0-0-0-0--0--00-0-0---5--5555-5-5-5h7-5-3-|
|-2-2-2-2-22-0--0-0-0-0--0--00-0-0---5--5555-5-5-5h7-5-3-|
pm              . . . .  .  .. . .

CHORUS: (guitar 2)
|----------------|
|----------------|
|-4-44-5-55-7-77-|
|-X-XX-X-XX-X-XX-|
|-2-22-3-33-5-55-|
|----------------|

CHORUS FILL: (guitar 1)
|-----------------|
|-----------------|
|-----------------|
|-5-5555--555-5-5-|
|-5-5555--555-5-5-|
|-5-5555--555-5-5-|

INTERLUDE:
|-------------------------------------|
|-------------------------------------|
|-------------------------------------|
|-2-2-XXX-2-2-XXXXX-2-2-XXX-2-2-XXX-X-|
|-2-2-XXX-2-2-XXXXX-2-2-XXX-2-2-XXX-X-|
|-2-2-XXX-2-2-XXXXX-2-2-XXX-2-2-XXX-X-|

7.Rise

INTRO:
|------------------------------------------------|
|------------------------------------------------|
|------------------------------------------------|
|------------------------------------------------|
|-3h5---5---5---55-3h5-3--3h5---5---5---55-3h5-3-|
|-----0---0---0---------------0---0---0----------|

|------------------------------------------|
|------------------------------------------|
|------------------------------------------|
|-------------------------------101010-555-|
|-3h5---5---5---55-3h5-3-666666--8-8-8-333-|
|-----0---0---0----------666666------------|

VERSE:
|------------------------------------|    |----------------------|
|------------------------------------|play|----------------------|
|------------------------------------| 3X |----------------------|
|------------------------------------|then|--------101010--------|
|-10h12-12-12-12-12-12-1212-10h12-10-|    |-666666--8-8-8-101010-|
|-10h12-12-12-12-12-12-1212-10h12-10-|    |-666666--------101010-|
pm      ..    ..    ..

BRIDGE: (palm mute)
|----------------------|
|----------------------|
|----------------------|
|----------------------|
|-0000--000--0000--000-|
|-0000--000--0000--000-|

BRIDGE 2:
|----------------------------------------------------------------|
|----------------------------------------------------------------|
|-7----10-10-10-1010-7--7---10-10-10-10-9-7--7---10-10-10-1010-9-|
|-7-0--10-10-10-1010-7--7-0-10-10-10-10-9-7--7-0-10-10-10-1010-9-|
|-5-0---8--8--8--8-8-5--5-0--8--8--8--8-7-5--5-0--8--8--8--8-8-7-|
|---0---------------------0--------------------0-----------------|

|-----------------|
|-----------------|
|-----------------|
|-------------7-5-|
|-7-7-7-7-7-7-7-5-|
|-7-7-7-7-7-7-7-5-|
pm. . . . . .

|----------------------------------------------------------------|
|----------------------------------------------------------------|
|-7----10-10-10-1010-7--7---10-10-10-10-9-7--7---10-10-10-1010-9-|
|-7-0--10-10-10-1010-7--7-0-10-10-10-10-9-7--7-0-10-10-10-1010-9-|
|-5-0---8--8--8--8-8-5--5-0--8--8--8--8-7-5--5-0--8--8--8--8-8-7-|
|---0---------------------0--------------------0-----------------|

|----------------|
|----------------|
|----------------|
|-------------10-|
|-7-7-7-7-7-7-10-|
|-7-7-7-7-7-7-10-|
pm. . . . . .

CHORUS:
|---------------------------------------------------------|
|---------------------------------------------------------|
|-----------------5-------------------------------------5-|
|-7--5-7-5--7-5-7----7--5-7-5--7-5-7-0--7--5-7-5-7--5-7---|
|-X---------5--------X---------5--------X--------5--------|
|-8------------------8------------------8-----------------|

|---------------------------------------------|
|---------------------------------------------|
|---------------------------------------------|
|---------------------------------------------|
|-3-3-3-3-3-3-3-3-3-3-3-3-8-8-8-8-8-8-8-8-8-8-|
|-3-3-3-3-3-3-3-3-3-3-3-3-8-8-8-8-8-8-8-8-8-8-|
pm. . . . . . . . . . . .

INTERLUDE: (palm mute)
|----------------------------------------|
|----------------------------------------|
|----------------------------------------|
|----------------------------------------|
|-0-0--3-2-0-0--2-3-0-0--3-2-0-2-0-2-0-3-|
|-0-0--3-2-0-0--2-3-0-0--3-2-0-2-0-2-0-3-|

INTERLUDE 2:
|----------------------------------------|
|----------------------------------------|
|----------------------------------------|
|-0-0--3-2-0-0--2-3-0-0--3-2-0-2-0-2-0-3-|
|-0-0--3-2-0-0--2-3-0-0--3-2-0-2-0-2-0-3-|
|-0-0--3-2-0-0--2-3-0-0--3-2-0-2-0-2-0-3-|

INTERLUDE 3: (gradually release palm mute)
|----------------------------------------|
|----------------------------------------|
|----------------------------------------|
|----------------------------------------|
|-8-8-8-8-8-8-8-8-8-8-8-8-8-8-8-8-8-8-10-|
|-8-8-8-8-8-8-8-8-8-8-8-8-8-8-8-8-8-8-10-|
pm. . . . . . . . . . . . . . .

CHORUS 2:
|-----------------------------------------------|
|-----------------------------------------------|
|-----------------------------------------------|
|-----------------------------------------------|
|-8-8-8-8-8-8--8-8-8-8-8-0-0-0-0-0-0--0-0-0-0-0-|
|-8-8-8-8-8-8--8-8-8-8-8-0-0-0-0-0-0--0-0-0-0-0-|

CHORUS 2 END:
|-------------------------------------------------|
|-------------------------------------------------|
|-------------------------------------------------|
|-------------------------------------------------|
|-3-3-3-3-3-3-3-3-3-3-3-3-8-8-8-8-8-8-8-8-8-8-8-8-|
|-3-3-3-3-3-3-3-3-3-3-3-3-8-8-8-8-8-8-8-8-8-8-8-8-|

OUTRO:
|-----|
|-----|
|-----|
|-12\-|
|-12\-|
|-12\-|

8.Mistress

Intro:
e-----------------------------------------------------------------|
b-----------------------------------------------------------------|
g-----------------------------------------------------------------|
d-2---2--2/9-9-9-9-5-5-5-7-7-5---2---2--2/9-9-9-9-5-5-5-7-7-10-10-|
a-2---2--2/9-9-9-9-5-5-5-7-7-5---2---2--2/9-9-9-9-5-5-5-7-7-10-10-|
d-2---2--2/9-9-9-9-5-5-5-7-7-5-2-2---2--2/9-9-9-9-5-5-5-7-7-10-10-|

e-----------------------------------------------------------------|
b-----------------------------------------------------------------|
g-----------------------------------------------------------------|
d-2---2--2/9-9-9-9-5-5-5-7-7-5---2---2--2/9-9-9-9-5-5-5--12~~~~~~-|
a-2---2--2/9-9-9-9-5-5-5-7-7-5---2---2--2/9-9-9-9-5-5-5-----------|
d-2---2--2/9-9-9-9-5-5-5-7-7-5-2-2---2--2/9-9-9-9-5-5-5-----------|

Verses:
x2,      pm
e-----------------------------------------------------------------|
b-----------------------------------------------------------------|
g-----------------------------------------------------------------|
d-2---2--------------------------2---2----------------------------|
a-2---2--------------------------2---2----------------------------|
d-2---2--2/9-9-9-9-5-5-5-7-7-5-0-2---2--2/9-9-9-9-5-5-5-7-7-10-10-|


x2
e-----------------------------------------------------------------|
b-----------------------------------------------------------------|
g-----------------------------------------------------------5-5---|
d-2---2--2/9-9-9-9-5-5-5-7-7-5-0-2---2--2/9-9-9-9-5-5-5-7-7-------|
a-2---2--------------------------2---2----------------------------|
d-2---2--------------------------2---2----------------------------|

Chorus

e----------------------------------------------------------|
b----------------------------------------------------------|
g------------------------------2---------------------------|
d-9-----x-x-x------------------0-----x-x-x-5---------------|
a-9-----x-x-x-4---5---4---x-x--0-----x-x-x-5---7----5-2----|
d-9-----x-x-x-4---4---4---x-x--0-----x-x-x-5---5----5-2----|

e----------------------------------------------------------|
b----------------------------------------------------------|
g------------------------------2---------------------------|
d-9-----x-x-x------------------0-----x-x-x-5---------------|
a-9-----x-x-x-4---5---4---x-x--0-----x-x-x-5---7----9--5---|
d-9-----x-x-x-4---4---4---x-x--0-----x-x-x-5---5----5--5---|

then,

1st ending
e----------------------------------------------------------|
b----------------------------------------------------------|
g----------------------------------------------------------|
d----------------------------------------------------------|
a-7----7--7--7----7-7---7--7--7----7--7--5----5---7-5-5-5--|
d-6----6--6--6----6-6---6--6--5----5--5--5----5---5-5-5-5--|

2nd ending
e----------------------------------------------------------|
b----------------------------------------------------------|
g----------------------------------------------------------|
d----------------------------------------------------------|
a-7----7--7--7----7-7---7--7--7----7--7--5----5---5---5----|
d-6----6--6--6----6-6---6--6--5----5--5--5----5---5---5----|

let ring
e-----------------------------------|
b-----------------------------------|
g-----------------------------------|
d-3---------------------------------|
a-2---------------------------------|
d-----------------------------------|

Bridge:

e-----------------------------------------------------------------|
b---0---------------3---2-------2---------------------------------|
g-------0-------0-----4-----2-------------------------------------|
d-----4-----4-----4-----------4----------5---5-----0-----4----4---|
a-2-----------2--------------------5-----5---5-----0-----5----4---|
d----------------------------------5-----5---5-----0-----4----4---|

then,
e-----------------------------------------------------------------|
b---0---------------3---2-------2---------------------------------|
g-------0-------0-----4-----2-------------------------------------|
d-----4-----4-----4-----------4----------5---5-----0-----4--------|
a-2-----------2--------------------5-----5---5-----0-----5----4---|
d----------------------------------5-----5---5-----0-----4----4---|

Interlude:

e-----------------------------------------------------------------|
b-----------------------------------------------------------------|
g-----------------------------------------------------------------|
d-----------------------------------------------------------------|
a-2--2------------2--2-------------2--2------------2--2-----------|
d-2--2------------2--2-------------2--2------------2--2-----------|

e-----------------------------------------------------------------|
b-----------------------------------------------------------------|
g--------3----------------6----------------3---------------6------|
d-----------------------------------------------------------------|
a-----------------------------------------------------------------|
d--------2----------------5----------------2---------------5------|

Outro Chorus:

e-----------------------------------------------------------------|
b-----------------------------------------------------------------|
g-----------------------------------------------------------------|
d-2---2--2/9-9-9-9-5-5-5-7-7-5---2---2--2/9-9-9-9-5-5-5-7-7-10-10-|
a-2---2--2/9-9-9-9-5-5-5-7-7-5---2---2--2/9-9-9-9-5-5-5-7-7-10-10-|
d-2---2--2/9-9-9-9-5-5-5-7-7-5-2-2---2--2/9-9-9-9-5-5-5-7-7-10-10-|

e-----------------------------------------------------------------|
b-----------------------------------------------------------------|
g-----------------------------------------------------------------|
d-2---2--2/9-9-9-9-5-5-5-7-7-5---2---2--2/9-9-9-9-5-5-5-----------|
a-2---2--2/9-9-9-9-5-5-5-7-7-5---2---2--2/9-9-9-9-5-5-5-----------|
d-2---2--2/9-9-9-9-5-5-5-7-7-5-2-2---2--2/9-9-9-9-5-5-5-/14-------|

x2
e-----------------------------------------------------------------|
b-----------------------------------------------------------------|
g-----------------------------------------------------------------|
d-2---2--2/9-9-9-9-5-5-5-7-7-5---2---2--2/9-9-9-9-5-5-5-7-7-10-10-|
a-2---2--2/9-9-9-9-5-5-5-7-7-5---2---2--2/9-9-9-9-5-5-5-7-7-10-10-|
d-2---2--2/9-9-9-9-5-5-5-7-7-5-2-2---2--2/9-9-9-9-5-5-5-7-7-10-10-|

e-----------------------------------|
b-----------------------------------|
g-----------------------------------|
d-2---2-----------------------------|
a-2---2-----------------------------|
d-2---2-----------------------------|

9.Breathe

INTRO:
|---------------------------------------8-7---------------------------|
|---------------------------------------------------------------------|
|-----------------------------9-10-9-10-----------------------7---5---|
|-9h10-9-XX-9h10-7-XX-9h10-9----------------9h10-9-XX-9h10-7--7-3-5-5-|
|-7----7-XX-7----7-XX-7----7----------------7----7-XX-7----7--5-3-3-5-|
|-7----7-XX-7----7-XX-7----7----------------7----7-XX-7----7----3---5-|
pm                            . .. . ..

|---------------------------------------8-7----------------------------|
|----------------------------------------------------------------------|
|-----------------------------9-10-9-10-----------------------7---5-10-|
|-9h10-9-XX-9h10-7-XX-9h10-9----------------9h10-9-XX-9h10-7--7-3-5-10-|
|-7----7-XX-7----7-XX-7----7----------------7----7-XX-7----7--5-3-3--8-|
|-7----7-XX-7----7-XX-7----7----------------7----7-XX-7----7----3------|
pm                            . .. . ..

VERSE:
|-------------------------------------------------------------|
|-------------------------------------------------------------|
|-----------------------------------------------------7---5---|
|-9h10-9-XX-9h10-7-XX-9h10-9-----9--9h10-9-XX-9h10-7--7-3-5-5-|
|-7----7-XX-7----7-XX-7----7---7----7----7-XX-7----7--5-3-3-5-|
|-7----7-XX-7----7-XX-7----7--------7----7-XX-7----7----3---5-|

|---------------------------------------8-7----------------------------|
|----------------------------------------------------------------------|
|-----------------------------9-10-9-10-----------------------7---5-10-|
|-9h10-9-XX-9h10-7-XX-9h10-9----------------9h10-9-XX-9h10-7--7-3-5-10-|
|-7----7-XX-7----7-XX-7----7----------------7----7-XX-7----7--5-3-3--8-|
|-7----7-XX-7----7-XX-7----7----------------7----7-XX-7----7----3------|
pm                            . .. . ..

BRIDGE:
|-------------------------------------------------------------|
|-------------------------------------------------------------|
|-9-9-9-9-9-9-9-9---------------------------------------------|
|-9-9-9-9-9-9-9-9-------------------------------5555-5555-555-|
|-7-7-7-7-7-7-7-7-3333-3333-333--0000-0000-000--3333-3333-333-|
|-----------------3333-3333-333--0000-0000-000----------------|

|--------------------------------------------------------------|
|--------------------------------------------------------------|
|-5555-5555-5----------------------------------7-7-7-7-7-7-7-7-|
|-3333-3333-3----------------------------------X-X-X-X-X-X-X-X-|
|-------------3--3333-3333-333--2222-2222-222--5-5-5-5-5-5-5-5-|
|-------------3--3333-3333-333--2222-2222-222--0-0-0-0-0-0-0-0-|

|---------------------|
|---------------------|
|-9/10-9/10-9/10-9/10-|
|-X-X--X-X--X-X--X-X--|
|-7/8--7/8--7/8--7/8--|
|---------------------|

CHORUS:
|-------------------/10----8----7----------------------------------|
|------------------------------------------------------------------|
|---------------------------------10101010101010101010101010101010-|
|-7-7-XX-5-5-XX-0-0-----10----9----X-X-X-X-X-X-X-X-X-X-X-X-X-X-X-X-|
|-7-7-XX-5-5-XX-0-0----------------8-8-8-8-8-8-8-8-8-8-8-8-8-8-8-8-|
|-7-7-XX-5-5-XX-0-0------------------------------------------------|

|---------------------------------------------8-7-|
|-------------------------------------------------|
|-9999999999999999-------------------7------------|
|-XXXXXXXXXXXXXXXX-7-7-XX-5-5-XX-0-0---10--10-----|
|-7777777777777777-7-7-XX-5-5-XX-0-0--------------|
|------------------7-7-XX-5-5-XX-0-0--------------|

|------------------------------------------------|
|------------------------------------------------|
|-10101010101010101010101010101010-9999999999999-|
|--X-X-X-X-X-X-X-X-X-X-X-X-X-X-X-X-XXXXXXXXXXXXX-|
|--8-8-8-8-8-8-8-8-8-8-8-8-8-8-8-8-7777777777777-|
|------------------------------------------------|

INTERLUDE:
|--------------------------------------------------------|
|--------------------------------------------------------|
|--------------------------------------------------------|
|-5-7-0-7-10-0-5-7-0-0-0-0-12-12-0-10-10-0-9-9-0-10-0-10-|
|-5-7-0-7-10-0-5-7-0-0-0-0-12-12-0-10-10-0-9-9-0-10-0-10-|
|--------------------------------------------------------|
pm    .      .     . . . .       .       .     .    .

|--------------------------------------------------|
|--------------------------------------------------|
|--------------------------------------------------|
|-5-7-0-7-10-0-5-7-0-0-0-0-5-7-0-5-7-0-5-7---------|
|-5-7-0-7-10-0-5-7-0-0-0-0-5-7-0-5-7-0-5-7-5-5-5-5-|
|------------------------------------------5-5-5-5-|
pm    .      .     . . . .     .     .     . . . .

|--------------------------------------------------------|
|--------------------------------------------------------|
|--------------------------------------------------------|
|-5-7-0-7-10-0-5-7-0-0-0-0-12-12-0-10-10-0-9-9-0-10-0-10-|
|-5-7-0-7-10-0-5-7-0-0-0-0-12-12-0-10-10-0-9-9-0-10-0-10-|
|--------------------------------------------------------|
pm    .      .     . . . .       .       .     .    .

|--------------------------------------------------|
|--------------------------------------------------|
|--------------------------------------------------|
|-5-7-0-7-10-0-5-7-0-0-0-0-10-10-XX-12-12-XX-10-10-|
|-5-7-0-7-10-0-5-7-0-0-0-0-10-10-XX-12-12-XX-10-10-|
|--------------------------10-10-XX-12-12-XX-10-10-|
pm    .      .     . . . .

OUTRO:
|---------------------------------------------------|
|---------------------------------------------------|
|-10101010101010101010101010101010-9999999999999999-|
|--X-X-X-X-X-X-X-X-X-X-X-X-X-X-X-X-XXXXXXXXXXXXXXXX-|
|--8-8-8-8-8-8-8-8-8-8-8-8-8-8-8-8-7777777777777777-|
|---------------------------------------------------|

OUTRO 2:
|---|
|---|
|---|
|-7-|
|-7-|
|-7-|

10.Bound

INTRO:
|------------------------------------------------------------------|
|------------------------------------------------------------------|
|------------------------------------------------------------------|
|------------------------------------------------------------------|
|------------------------------------------------------------------|
|-3-3-3-0-0-0-2-2-2-5-5-5-5-5-5-5--3-3-3-0-0-0-2-2-2-5-5-5-2-2-5-5-|

|------------------------------------------------------------|
|------------------------------------------------------------|
|------------------------------------------------------------|
|------------------------------------------------------------|
|------------------------------------------------------------|
|-3-3-3-0-0-0-2-2-2-5-5-5-5-5-5-5--3-3-3-0-0-0-2-2-2-5-5-5-2-|

MAIN RIFF:
|------------------------------------------------------------------|
|------------------------------------------------------------------|
|------------------------------------------------------------------|
|-3-3-3-0-0-0-2-2-2-5-5-5-5-5-5-5--3-3-3-0-0-0-2-2-2-5-5-5-2-2-5-5-|
|-3-3-3-0-0-0-2-2-2-5-5-5-5-5-5-5--3-3-3-0-0-0-2-2-2-5-5-5-2-2-5-5-|
|-3-3-3-0-0-0-2-2-2-5-5-5-5-5-5-5--3-3-3-0-0-0-2-2-2-5-5-5-2-2-5-5-|

BRIDGE:
|------------------------------------------------|
|------------------------------------------------|
|------------------------------------------------|
|-2-/9--3-/10--5-5-3--2-/9--0-3-0-5-5-3--10-10-3-|
|-2-/9--3-/10--5-5-3--2-/9--0-3-0-5-5-3--10-10-3-|
|-2-/9--3-/10--5-5-3--2-/9--0-3-0-5-5-3--10-10-3-|

|-----------------------------------------|
|-----------------------------------------|
|-----------------------------------------|
|-2-/9--3-/10--5-5-3--2-/9--3-0--0--0-5-3-|
|-2-/9--3-/10--5-5-3--2-/9--3-0--0--0-5-3-|
|-2-/9--3-/10--5-5-3--2-/9--3-0--0--0-5-3-|

VERSE:
|----------------------------------------------------------------9^-|
|-------------------------------------------------------------------|
|-------------------------------------------------------------------|
|-------------------------------------------------------------------|
|---2---3----------2-------------3-3-----2---3---------2------------|
|-2---3---5-5-3--2---0-3-0-5-5-3-----3-2---3---5-5-3-2---3-0-0-0----|

|--------------------------------------------------------------------|
|--------------------------------------------------------------------|
|--------------------------------------------------------------------|
|----------------------------------------------------------------5-3-|
|---2---3----------2-------------3-3-----2---3---------2---------5-3-|
|-2---3---5-5-3--2---0-3-0-5-5-3-----3-2---3---5-5-3-2---3-0-0-0-5-3-|

CHORUS:
|--------------------------------------------------------------------|
|--------------------------------------------------------------------|
|---/9-9-7-----------------/9-9-7----------------/9-9-7--------------|
|-2--X-X-X---------------2--X-X-X--------------2--X-X-X--------------|
|-2-/7-7-5-0-0-0--0-0-0--2-/7-7-5-0--0--0-0-0--2-/7-7-5-0-0-0--0-0-0-|
|-2--------0-0-0--0-0-0--2--------0--0--0-0-0--2--------0-0-0--0-0-0-|
pm         . . .  . . .           .  .  . . .           . . .  . . .

|-------------|
|-------------|
|-------------|
|-7-7-7-7-7-9-|
|-5-5-5-5-5-9-|
|-5-5-5-5-5-9-|

CHORUS B:
|--------------------------------|
|--------------------------------|
|-12-12-12-12-12--11-11-11-11-11-|
|-10-10-10-10-10--10-10-10-10-10-|
|-10-10-10-10-10--10-10-10-10-10-|
|-10-10-10-10-10--10-10-10-10-10-|

MAIN RIFF FILL:
|------------------------------------------------------------------|
|------------------------------------------------------------------|
|------------------------------------------------------------------|
|----------------------------------3-3-3-0-0-0-2-2-2-5-5-5-2-2-5-5-|
|----------------------------------3-3-3-0-0-0-2-2-2-5-5-5-2-2-5-5-|
|-3-3-3-0-0-0-2-2-2-5-5-5-5-5-5-5--3-3-3-0-0-0-2-2-2-5-5-5-2-2-5-5-|

FILL:
|--------|
|--------|
|-9~~~~~-|
|--------|
|--------|
|--------|

INTERLUDE: (only palm mute first 4X through)
|---------------------------------|
|---------------------------------|
|---------------------------------|
|---------------------------------|
|-2-----------2-----------5-------|
|---3-2-0-2-3---3-2-0-2-3---3-2-0-|
pm  . . . . .   . . . . .   . . .

BRIDGE 2:
|-------------------------|    |------------|
|-------------------------|play|------------|
|-------------------------| 3X |------------|
|-2-2-2-/9--3-3-3-/9--3-3-|then|-2-2-2-/9-3-|
|-2-2-2-/9--3-3-3-/9--3-3-|    |-2-2-2-/9-3-|
|-2-2-2-/9--3-3-3-/9--3-3-|    |-2-2-2-/9-3-|

OUTRO:
|---|
|---|
|---|
|-2-|
|-2-|
|-2-|

11.Devour

INTRO:
|------------------------------------------------------------------|
|------------------------------------------------------------------|
|---5---4---2-4-5---5---2-4-5--------5---4---2-4-5---2---0---------|
|-------------------------------5----------------------------1-----|
|-2---2---2-------2---2-------3----2---2---2-------0---0---0---2---|
|----------------------------------------------------------------3-|

|------------------------------------------------------------------|
|------------------------------------------------------------------|
|---5---4---2-4-5---5---2-4-5--------5---4---2-4-5---2---0-------0-|
|-------------------------------5----------------------------1-----|
|-2---2---2-------2---2-------3----2---2---2-------0---0---0---0---|
|------------------------------------------------------------------|

VERSE:
|----------------------------------------------------|
|----------------------------------------------------|
|---5---4---2-4-5------5---4---2-4-5---2---0---------|
|----------------------------------------------1-----|
|-2---2---2----------2---2---2-------0---0---0---2---|
|--------------------------------------------------3-|
pm.   .   .          .   .   .       .   .   .

|----------------------------------------------------|
|----------------------------------------------------|
|---5---4---2-4-5------5---4---2-4-5---2---0-------0-|
|----------------------------------------------1-----|
|-2---2---2----------2---2---2-------0---0---0---0---|
|----------------------------------------------------|
pm.   .   .          .   .   .       .   .   .

BRIDGE:
|-----------------------------|
|-----------------------------|
|-----------------------7-9-9-|
|-9-9-9--9--9-9--9-9-9--7-9-9-|
|-9-9-9--9--9-9--9-9-9--5-7-7-|
|-9-9-9--9--9-9--9-9-9--------|

CHORUS:
|-----------------------------------------------------|
|-------------------------------7-77------------------|
|------------------7-77-666-----5-55-777--------------|
|-9-7-5-55-555-0-0-4-44-444-9-7-5-55-555-2-2-4-44-444-|
|-9-7-5-55-555-0-0-4-44-444-9-7-5-55-555-2-2-4-44-444-|
|-9-7-5-55-555-0-0-4-44-444-9-7-5-55-555-2-2-4-44-444-|

POSTCHORUS:
|------------------------------------------------------------------|
|------------------------------------------------------------------|
|---5---4---2-4-5---5---2-4-5--------5---4---2-4-5-2--5------------|
|-------------------------------5------------------2--5------------|
|-2---2---2-------2---2-------3----2---2---2-------0--3------------|
|------------------------------------------------------------------|

VERSE 2:
|------------------------------------------------------------------|
|------------------------------------------------------------------|
|---5---4---2-4-5---5---2-4-5--------5---4---2-4-5---2---0---------|
|-------------------------------5----------------------------1-----|
|-2---2---2-------2---2-------3----2---2---2-------0---0---0---2---|
|----------------------------------------------------------------3-|
pm.   .   .       .   .       .    .   .   .       .   .   .

|------------------------------------------------------------------|
|------------------------------------------------------------------|
|---5---4---2-4-5---5---2-4-5--------5---4---2-4-5---2---0-------0-|
|-------------------------------5----------------------------1-----|
|-2---2---2-------2---2-------3----2---2---2-------0---0---0---0---|
|------------------------------------------------------------------|
pm.   .   .       .   .       .    .   .   .       .   .   .   .

INTERLUDE:
|------------------------------|
|------------------------------|
|------------------------------|
|------------------------------|
|------------------------------|
|-9--9-9--9-9-9--9-9-9-9-10-10-|

INTERLUDE 2:
|------------------------------|
|------------------------------|
|------------------------------|
|-9--9-9--9-9-9--9-9-9-9-10-10-|
|-9--9-9--9-9-9--9-9-9-9-10-10-|
|-9--9-9--9-9-9--9-9-9-9-10-10-|

OUTRO:
|---------------------------------|
|---------------------------------|
|---5---4---2-4-5---5---2-4-5-----|
|-------------------------------5-|
|-2---2---2-------2---2-------3---|
|---------------------------------|

12.Darkness

intro
--------------------------------------|
--------------------------------------|
-------------------------------0------|
------4---4-0---0--------4---4-----0--|
----2---2-----2--------2---2-----2----|
--0------------------3----------------|
chorus   3x                             then          strum D chord
-----------0--------------0------|     |----------0----------2-2--|
-------------3--------------3----|     |------------3--------3-3--|
------0--------0--------------0--|     |------0-------0------2-2--|
----2----------------------------|     |----2-------------0--0-0--|
--3----------------3-------------|     |--3-----------------------|
---------------------3-0---------|     |--------------------------|
repeat intro
chorus
break    repeat   4x                   4th time strum this chord
-----------------------------------------------------|  -----|
----------------0-0-0-----0-0-0-----0-0-0-----0-0-0--|  --0--|
--4--4-4-4--4---4-4-4-4---4-4-4-4---4-4-4-4---4-4-4--|  --4--|
--2--2-2-2--3---0-0-0-3---0-0-0-3---0-0-0-3---0-0-0--|  --0--|
--2--2-2-2--2---2-2-2-2---2-2-2-2---2-2-2-2---2-2-2--|  --2--|
-----------------------------------------------------|  -----|

ENJOY!!!!!
comments
print report bad tab
1 comment total.
0 reply
wik3dspid3r wrote on February 25 2007, 06:31 pm

hey i have the book for this and in that first riff you have there is no 12 it starts with 13

I want to post or [tab]
guest
You may want to rate the tab now too:
select rating
Please do not post tabs as comments. Select "correction" instead!