Oops, an error
Loading. Please wait.

Believe Tab

ver2
ver2

Album

Whole song

More versions @911Tabs.com
3,653 views 3 this week
3 commentsread comments
1 2 3 4 5
accurate
x 1
Autoscroll
+/-
esc
set tempo
stop
Contributor
WARNING: You are trying to view
                                    content from Ultimate-Guitar.com
                                    in an unauthorized application,
                                    which is prohibited.

                                    Please use an official Ultimate
                                    Guitar Tabs application for iPhone,
                                    iPad or Android to access legitimate
                                    chords, guitar, bass, and drum tabs
                                    from Ultimate-Guitar.com database.

                                    Type "ultimate guitar tabs" in Apple
                                    App Store's or Android Market's
                                    search to find the application.
Disturbed - Believe

I believe all of this is tabed correctly, Plaese rate me!

Track 1 - Prayer:

Tuning: (Db Ab Db Gb Bb Eb)
x = palm mute
/ = slide up
 = slide down
| = start/end riff

[Intro Riff]
Eb|------------------------------------------------------------------|
Bb|------------------------------------------------------------------|
Gb|------------------------------------------------------------------|
Db|------------------------------------------------------------------|
Ab|12-12-12-12-12-12-12-12-12-12-12-12-15-15-15-15-15-15-18-18-18-18-|
Db|0--0--0--13-0--13-0--0--0--13-0--13-0--0--0--13-0--13-0--0--0--13-|

 ---------------------------------------------------------------------|
 ---------------------------------------------------------------------|
 ---------------------------------------------------------------------|
 ---------------------------------------------------------------------|
 17-17-12-12-12-12-12-12-12-12-12-12-12-12-15-15-15-15-15-15-18-18-18-|
 0--13-0--0--0--13-0--13-0--0--0--13-0--13-0--0--0--13-0--13-0--0--0--|

 -------|
 -------|
 -------|
 -------|
 -13-10-|
 -13-10-|
[Riff 2]
Eb|------------------------------------------------------------------|
Bb|------------------------------------------------------------------|
Gb|------------------------------------------------------------------|
Db|------------------------------------------------------------------|
Ab|-------------------------------------------------------------13-10|
Db|-0x-0x-0x-0x-0x-0x-0x-0x-0x-0x-0x-0x-0x-0x-0x-0x-0x-0x-0x-0x-13-10|
    ^Open string, palm mute the whole riff. This isnt the exact
     amount of times to play each note, easy to figure out. Play the
     riff 2 times.
[Riff 3]                                                      [Riff 4]
Eb|----------------------------------------------------------------|---|
Bb|----------------------------------------------------------------|---|
Gb|-------------------------------------------------------5-5-5-5/-|10-|
Db|-------7-1-1-1-1-3-8-7-1-1-1-1-3-1-7-1-1-1-1-3-8-7-3-3-3-3/-|10-----|
Ab|-13-10-7-1-1-1-1-3-8-7-1-1-1-1-3-1-7-1-1-1-1-3-8-7-3-3-3-3/-|8------|
Db|-13-10-7-1-1-1-1-3-8-7-1-1-1-1-3-1-7-1-1-1-1-3-8-7-3-3-3-3/-|8------|

 ---------------------------------------------------------------------|
 ---------------------------------------------------------------------|
 10-10-10-10-10-5-5/-7-7-7-5-5-5/-10-10-10-10-10-10/-------12-12-12---|
 10-10-10-10-10-3-3/-5-5-5-3-3-3/-10-10-10-10-10-10/-14-12-10-10-10---|
 8--8--8--8--8--3-3/-5-5-5-3-3-3/-8--8--8--8--8--8-/-12-12-10-10-10---|
 8--8--8--8--8--3-3/-5-5-5-3-3-3/-8--8--8--8--8--8-/-12-12-10-10-10---|
          [Riff 5]
 ---------|-------------------------------------------------|
 ---------|-------------------------------------------------|
 12-12-12-|-------------------------------------------------|
 12-12-12-|-8-8-8-8-8-8-8-8-8-8-8-8-8-8-8-8-8-8-8-8-8-8-8-8-|
 10-10-10-|-8-8-8-8-8-8-8-8-8-8-8-8-8-8-8-8-8-8-8-8-8-8-8-8-|
 10-10-10-|-8-8-8-8-8-8-8-8-8-8-8-8-8-8-8-8-8-8-8-8-8-8-8-8-|
Play Riff 4 twice. After this riff 5 go back to intro riff, and play everything
all over again.
[Riff 6]
Eb|--------------------------------------------------------------------|
Bb|--------------------------------------------------------------------|
Gb|--------------------------------------------------------------------|
Db|-0------------------------------------------------------------------|
Ab|-0------------------------------------------------------------------|
Db|-0--12-2-2-0-2--2-2-0-2--0-2-0-2--2-0-2--2-0-2-3--2-2-0-2--2-2-0-2--|
 Pick up here after 2nd time around.
                            [Riff 7]
 ---------------------------|------------------------------------------|
 ---------------------------|------------------------------------------|
 ---------------------------|------------------------------------------|
 ---------------------------|2-2-0-2--2-2-0-2--0-2-0-2--2-0-2--2-0-2-3-|
 ------------------3x-3x-3x-|2-2-0-2--2-2-0-2--0-2-0-2--2-0-2--2-0-2-3-|
 0-2-0-2--2-2-0-2--3x-3x-3x-|2-2-0-2--2-2-0-2--0-2-0-2--2-0-2--2-0-2-3-|

 ----------------------------------------|
 ----------------------------------------|
 ----------------------------------------|
 2-2-0-2--2-2-0-2--0-2-0-2--2-0-2--3-3-3-|
 2-2-0-2--2-2-0-2--0-2-0-2--2-0-2--3-3-3-|
 2-2-0-2--2-2-0-2--0-2-0-2--2-0-2--3-3-3-|
Play riff 7 twice, then repeat riff 4 twice.
[Riff 8]
Eb|---------------------------------------------------|
Bb|---------------------------------------------------|
Gb|-10-10--------10-10--------10-10--5-5-7-7-7-5-5----|
Db|-10-10--------10-10--------10-10--3-3-5-5-5-3-3----|
Ab|-8--8--8x-8x--8--8--8x-8x--8--8---3-3-5-5-5-3-3----|
Db|-8--8--8x-8x--8--8--8x-8x--8--8---3-3-5-5-5-3-3----|
 Back to Riff 5 after playing Riff 8 twice.
[Riff 9]
Eb|----------------------------------------------------------|
Bb|----------------------------------------------------------|
Gb|----------------------------------------------------------|
Db|----------------------------------------------------------|
Ab|-0x-0x-0x-0x-0x-0x-0x-0x-0x-0x-0x-0x-0x-0x-0x-0x-0x-0x-0x-|
Db|-0x-0x-0x-0x-0x-0x-0x-0x-0x-0x-0x-0x-0x-0x-0x-0x-0x-0x-0x-|

Track 2 - Liberate:

Tuning: Db Ab Db Gb Bb Eb

h = harmonic
 = slide down
p = pull off

Intro:
|-----------------------------| |-----------------------------| |-------|
|-----------------------------| |-----------------------------| |-------|
|-----------------------------| |-----------------------------| |-------|
|-----------------------------| |-0-2--2-2-2-2--2-2-2-0-2-2-2-| |-------|
|-----------------------------| |-0-2--2-2-2-2--2-2-2-0-2-2-2-| |-------|
|-0-2--2-2-2-2--2-2-2-0-2-2-2-| |-0-2--2-2-2-2--2-2-2-0-2-2-2-| |-12----|


|----------------------------------------------------|
|----------------------------------------------------|
|----------------------------------------------------|
|----------------------------------------------------|
|-0-2-2-2-2--2-2-2-0-2-2-2-2-3-3-3-3-8-8-8-8-8-8-8-8-|
|-0-2-2-2-2--2-2-2-0-2-2-2-2-3-3-3-3-8-8-8-8-8-8-8-8-|

 ---------------------------------------------------|
 ---------------------------------------------------|
 ---------------------------------------------------|
 ---------------------------------------------------|
 -0-2-2-2-2--2-2-2-0-2-2-2-0-2-2-2-2--2-2-2-0-2-2-2-|
 -0-2-2-2-2--2-2-2-0-2-2-2-0-2-2-2-2--2-2-2-0-2-2-2-|

|-----------------------------------------|
|-----------------------------------------|
|-----------------------------------------|
|---------------------------------------0-|
|-0-2-2-2-2--2-2-2-0-2-2-2-0-2-2-2-2--2-0-|
|-0-2-2-2-2--2-2-2-0-2-2-2-0-2-2-2-2--2-0-|

|----------------------------------------------------------------------------------------|
|----------------------------------------------------------------------------------------|
|----------------------------------------------------------------------------------------|
|----------------------------------------------------------------------------------------|
|----------------------------------------------------------------------------------------|
|-2-2-2-2-2-2-2-2-2-2-2-2-2-2-21-1-1-1-1-1/9-9-9-9-9-9-9-9-9-9-10-10-10-10-10-10-10-10---|

 --------------------------------------------| |--------------------|
 --------------------------------------------| |--------------------|
 --------------------------------------------| |--------------------|
 --------------------------------------------| |-7-7-7--7-7-7-------|
 --------------------------------------------| |-7-7-7--6-6-6-------|
 10-10-10-10-10-10-5-5-5-5-5-5/9-9-9-9-9-9-9-| |-7-7-7--7-7-7--12---|

|----------------------------------|
|----------------------------------|
|-5-5-5-5-5-5-5-5------------------|
|-5-5-5-4-4-4-4-4--5-5-5-4-4-2-2-2-|
|-3-3-3-3-3-3-3-3--2-2-2-2-2-2-2-2-|
|------------------2-2-2-2-2-2-2-2-|

|-----------------------------|
|-----------------------------|
|-2--2--4-4--4-4--4-4--4-4----|
|-0--0--4-4--4-4--4-4--4-4--5-|
|-0--0--2-2--2-2--2-2--2-2--5-|
|-0--0----------------------5-|

|-----------------------------| |-----------------------------| |-------------|
|-----------------------------| |-----------------------------| |-------------|
|-----------------------------| |-----------------------------| |-------------|
|-----------------------------| |-0-2--2-2-2-2--2-2-2-0-2-2-2-| |-------------|
|-----------------------------| |-0-2--2-2-2-2--2-2-2-0-2-2-2-| |-2x-2x-2x-2x-|
|-0-2--2-2-2-2--2-2-2-0-2-2-2-| |-0-2--2-2-2-2--2-2-2-0-2-2-2-| |-2x-2x-2x-2x-|
                                                                   ^use delay
|----------------------------------------------------|
|----------------------------------------------------|
|----------------------------------------------------|
|----------------------------------------------------|
|-0-2-2-2-2--2-2-2-0-2-2-2-2-3-3-3-3-8-8-8-8-8-8-8-8-|
|-0-2-2-2-2--2-2-2-0-2-2-2-2-3-3-3-3-8-8-8-8-8-8-8-8-|

 ---------------------------------------------------|
 ---------------------------------------------------|
 ---------------------------------------------------|
 ---------------------------------------------------|
 -0-2-2-2-2--2-2-2-0-2-2-2-0-2-2-2-2--2-2-2-0-2-2-2-|
 -0-2-2-2-2--2-2-2-0-2-2-2-0-2-2-2-2--2-2-2-0-2-2-2-|

|-----------------------------------------|
|-----------------------------------------|
|-----------------------------------------|
|---------------------------------------0-|
|-0-2-2-2-2--2-2-2-0-2-2-2-0-2-2-2-2--2-0-|
|-0-2-2-2-2--2-2-2-0-2-2-2-0-2-2-2-2--2-0-|

|----------------------------------------------------------------------------------------|
|----------------------------------------------------------------------------------------|
|----------------------------------------------------------------------------------------|
|----------------------------------------------------------------------------------------|
|----------------------------------------------------------------------------------------|
|-2-2-2-2-2-2-2-2-2-2-2-2-2-2-21-1-1-1-1-1/9-9-9-9-9-9-9-9-9-9-10-10-10-10-10-10-10-10---|

 --------------------------------------------| |--------------------|
 --------------------------------------------| |--------------------|
 --------------------------------------------| |--------------------|
 --------------------------------------------| |-7-7-7--7-7-7-------|
 --------------------------------------------| |-7-7-7--6-6-6-------|
 10-10-10-10-10-10-5-5-5-5-5-5/9-9-9-9-9-9-9-| |-7-7-7--7-7-7--12---|

|----------------------------------|
|----------------------------------|
|-5-5-5-5-5-5-5-5------------------|
|-5-5-5-4-4-4-4-4--5-5-5-4-4-2-2-2-|
|-3-3-3-3-3-3-3-3--2-2-2-2-2-2-2-2-|
|------------------2-2-2-2-2-2-2-2-|

|-----------------------------|
|-----------------------------|
|-2--2--4-4--4-4--4-4--4-4----|
|-0--0--4-4--4-4--4-4--4-4--5-|
|-0--0--2-2--2-2--2-2--2-2--5-|
|-0--0----------------------5-|

|--------------------------------------------------------|
|--------------------------------------------------------|
|------------2------------7h------------2----------------|
|-2-2-2----3---2-2-2----7h---2-2-2----3---2-2-2----7h----|
|-2-2-2--2-----2-2-2--7h-----2-2-2--2-----2-2-2--7h--7h--|
|-2-2-2--------2-2-2---------2-2-2--------2-2-2----------|

|-------------------------------------------------------------------|
|-------------------------------------------------------------------|
|--------------2----------------7h--------------2-------------------|
|-2-2-2------3---2-2-2----7h--7h---2-2-2------3---2-2-2----7h--7h---|
|-2-2-2-xx-2-----2-2-2-xx---7h-----2-2-2-xx-2-----2-2-2-xx---7h--7h-|
|-2-2-2----------2-2-2-------------2-2-2----------2-2-2-------------|

|--------------------------------|
|--------------------------------|
|-5--5------------5--5-----------|
|-5--4---5--4-2p--5--4---5--4-2p-|
|-3--3---2--2-----3--3---2--2----|
|--------2--2------------2--2----|

|----------------------------------|
|----------------------------------|
|-5-5-5-5-5-5-5-5------------------|
|-5-5-5-4-4-4-4-4--5-5-5-4-4-2-2-2-|
|-3-3-3-3-3-3-3-3--2-2-2-2-2-2-2-2-|
|------------------2-2-2-2-2-2-2-2-|

|---------------------------------------|
|---------------------------------------|
|-2--2--4x-4--4x-4--4x-4--4x-4----------|
|-0--0--4x-4--4x-4--4x-4--4x-4--5-5-5-5-|
|-0--0--2x-2--2x-2--2x-2--2x-2--5-5-5-5-|
|-0--0--------------------------5-5-5-5-|

|----------------------------------|
|----------------------------------|
|-5-5-5-5-5-5-5-5------------------|
|-5-5-5-4-4-4-4-4--5-5-5-4-4-2-2-2-|
|-3-3-3-3-3-3-3-3--2-2-2-2-2-2-2-2-|
|------------------2-2-2-2-2-2-2-2-|

|---------------------------------|
|---------------------------------|
|-2--2----------------------------|
|-0--0--------------------5-5-5-5-|
|-0--0---0-2-0-2-0-2-0-2--5-5-5-5-|
|-0--0--------------------5-5-5-5-|

|-----------------------------| |-----------------------------| |---------|
|-----------------------------| |-----------------------------| |---------|
|-----------------------------| |-----------------------------| |---------|
|-----------------------------| |-0-2--2-2-2-2--2-2-2-0-2-2-2-| |-0-2-0-2-|
|-----------------------------| |-0-2--2-2-2-2--2-2-2-0-2-2-2-| |-0-2-0-2-|
|-0-2--2-2-2-2--2-2-2-0-2-2-2-| |-0-2--2-2-2-2--2-2-2-0-2-2-2-| |-0-2-0-2-|

Track 3 - Awaken:

Tuning: Db Ab Db Gb Bb Eb


Intro: x2

e-----------------------------------------------------------------|
b-----------------------------------------------------------------|
g-------------------------------------------------------------<5>-|
d------/3-2---------------------------/3-2--------------------<5>-|
a-3-2--------3-2---3-2-/6-5-5-5--3-2--------3-2---3-2-/6-5--5-----|
d-3-2--------3-2---3-2-/6-5-5-5--3-2--------3-2---3-2-/6-5--5-----|

e-----------------------------------------------------------------|
b-----------------------------------------------------------------|
g-----------------------------------------------------------------|
d------/3-2---------------------------/3-2------------------------|
a-3-2--------3-2---3-2-/6-5-5-5--3-2--------3-2---5-5--x---x---x--|
d-3-2--------3-2---3-2-/6-5-5-5--3-2--------3-2---5-5--x---x---x--|

Verse 1: (x2)

w/ flanger

e---------------0--------------------------------0----------------|
b-----------------------------------------------------------------|
g-9-------------------------------9-------------------------------|
d-9---------------------------x-x-8---------------------------x-x-|
a-7---------------------------x-x-7---------------------------x-x-|
d-----------------------------------------------------------------|

e-----------------------------------------------------------------|
b---------------------------------------------------------------0-|
g-12-----------12-------------------------------12----------------|
d-11--------------------------x-x-14--------------------------x---|
a-10--------------------------x-x-10--------------------------x---|
d-----------------------------------------------------------------|

e---------------0--------------------------------0----------------|
b-----------------------------------------------------------------|
g-9-------------------------------9-------------------------------|
d-9---------------------------x-x-8---------------------------x-x-|
a-7---------------------------x-x-7---------------------------x-x-|
d-----------------------------------------------------------------|

1st ending:
e-----------------------------------------------------------------|
b-----------------------------------------------------------------|
g-12-----------12-----------------12------------12----------------|
d-11------------------------------11--------------------------x-x-|
a-10------------------------------10--------------------------x-x-|
d-----------------------------------------------------------------|

2nd ending:

e-----------------------------------------------------------------|
b-----------------------------------------------------------------|
g-12-----------12-----------------12----12---12-12---12--12---12--|
d-11------------------------------11----11---11-11---11--11---11--|
a-10------------------------------10----10---10-10---10--10---10--|
d-----------------------------------------------------------------|

Chorus: x2

e-------------------------------------------------------------|
b-------------------------------------------------------------|
g-----------------4-4-4-----5-5-----------------4-4-4---------|
d---------------------------5-5-------------------------------|
a----/5-5-5-5-3--------------------/5-5-5-5-3-----------------|
d-2-----------3---------5-5-----2-----------3---------5-5--0--|

e--------------------------------------------------------------|
b--------------------------------------------------------------|
g-----------------4-4-4-----5-5--------------------------------|
d---------------------------5-5--------------------------------|
a----/5-5-5-5-3------------------------------------------------|
d-2-----------3---------5-5-----2--0-0-0-0---0-0-0-0-0---0-0-0-|

after choruses: x2

e------------------------------------------------------------------|
b------------------------------------------------------------------|
g------------------------------------------------------------------|
d-32---------32---------3-2-----32---------32---------3-2----------|
a-32---x-x-x-32-x-x-x-0-3-2-----32---x-x-x-32-x-x-x-0-3-2----------|
d-32---x-x-x-32-x-x-x-0-3-2-----32---x-x-x-32-x-x-x-0-3-2----------|

e------------------------------------------------------------------|
b------------------------------------------------------------------|
g------------------------------------------------------------------|
d-32---------32---------3-2-----65---------------------------------|
a-32---x-x-x-32-x-x-x-0-3-2-----65-------5-5----5----x-x---5-------|
d-32---x-x-x-32-x-x-x-0-3-2-----65-------5-5----5----x-x---5-------|

before 2nd verse:

e-----------------------------------------------------------------|
b-----------------------------------------------------------------|
g-9---------------------------------------------------------------|
d-9---------------------------9p7-8-------------------------------|
a-7---------------------------7---7-------------------------------|
d-----------------------------------------------------------------|

e-----------------------------------------------------------------|
b-----------------------------------------------------------------|
g------------------------------12---------------------------------|
d-11---------------------------11-14--------------------------x-x-|
a-10---------------------------10-10--------------------------x-x-|
d-----------------------------------------------------------------|

2nd Verse: (play 1st verse with)

pm throughout
x4
e-----------------------------------------------------------------|
b-----------------------------------------------------------------|
g-----------------------------------------------------------------|
d-----------------------------------------------------------------|
a-3-2---------3-2---2--2---------3-2----------3-2---5-5---5---5---|
d-3-2-----x---3-2---2--2-----0-0-3-2------x---3-2---5-5---5---5---|

then,

e-----------------------------------------------------------------|
b-----------------------------------------------------------------|
g-----------------------------------------------------------------|
d------3-2---------------------------3-2--------------------------|
a-----------------------------------------------------------------|
d-3-2-------3-2---3-2---6-5---5-3-2-------3-2---3-2---6-5--5--5---|

e-----------------------------------------------------------------|
b-----------------------------------------------------------------|
g-----------------------------------------------------------------|
d------3-2---------------------------3-2--------------------------|
a----------------------------------------------------------5--5---|
d-3-2-------3-2---3-2---6-5---0-3-2-------3-2---3-2---6-5--5--5---|

Chorus
After Chorus

2nd Ending: let ring & fade

e-----------------------------------------------------------------|
b-----------------------------------------------------------------|
g-----------------------------------------------------------------|
d-----------------------------------------------------------------|
a-2---------------------------------------------------------------|
d-2---------------------------------------------------------------|

Bridge:

x2
e---------0---------0-----------------------0---------0-----------|
b--------------------------------0------------------------------0-|
g-----------------------------------------------------------------|
d-----------------------------------------------------------------|
a-----------------------------------3-----------------------------|
d-2---------------------------------------------------------------|

e-------------------0-------------------------------------0-------|
b---------1----------------------1----------3----------------3----|
g---------2---------------------------------4-------------------4-|
d---------2---------------------------------4---------------------|
a-0---------------------------------2-----------------------------|
d-----------------------------------------------------------------|

then,

e-------------------0---------------------------------------------|
b---------1--------------------1----------------------------------|
g---------2-----------------------4-4-4-4-4-4-4-4-4-4-4-4-4-4-4-4-|
d---------2-----------------------4-4-4-4-4-4-4-4-4-4-4-4-4-4-4-4-|
a-0-------------------------------2-2-2-2-2-2-2-2-2-2-2-2-2-2-2-2-|
d-----------------------------------------------------------------|

Outro:

x3
e-----------------------------------------------------------------|
b-----------------------------------------------------------------|
g-----------------------------------------------------------------|
d-3-2-x-x-x-x-3-2-x-x-x-x-3-2-x-x-3-2-x-x-x-x-3-2-x-x-x-x-3-2-x-x-|
a-3-2-x-x-x-x-3-2-x-x-x-x-3-2-x-x-3-2-x-x-x-x-3-2-x-x-x-x-3-2-x-x-|
d-3-2-x-x-x-x-3-2-x-x-x-x-3-2-x-x-3-2-x-x-x-x-3-2-x-x-x-x-3-2-x-x-|

then

e-----------------------------------------------------------------|
b-----------------------------------------------------------------|
g-----------------------------------------------------------------|
d-3-2-x-x-x-x-3-2-x-x-x-x-3-2-------------------------------------|
a-3-2-x-x-x-x-3-2-x-x-x-x-3-2-------------------------------------|
d-3-2-x-x-x-x-3-2-x-x-x-x-3-2-------------------------------------|

Track 4 - Believe:

Tuning: Db Ab Db Gb Bb Eb

p = pull off
/ = slide up
pm = palm mute

|------------------------------------------|
|------------------------------------------|
|------------------------------------------|
|-7-7-7--7/10-10-10--10-10-10-10--10-8-8-7-|
|-5-5-5--5-5--5--5---5-/8--8--8---8--5-5-5-|
|-5-5-5--5-5--5--5---5-/8--8--8---8--0-0-0-|

|--------------------------------------------------|
|--------------------------------------------------|
|--------------------------------------------------|
|-7-7-7--7/10-10-10--10-10-10-10--10---------------|
|-5-5-5--5-5--5--5---5-/8--8--8---8--0-0-0-0-0-0---|
|-5-5-5--5-5--5--5---5-/8--8--8---8--0-0-0-0-0-0---|
                                    [----pm--------|

|------------------------------------|
|------------------------------------|
|------------------------------------|
|----------------------------8-8-7---|
|----------------------------5-5-5---|
|-5-5-5--5-5-5-5--5-8-8-8--8-0-0-0---|
 [--------------pm-------------------|

|------------------------------------------|
|------------------------------------------|
|------------------------------------------|
|------------------------------------------|
|------------------------------------------|
|-5-5-5--5-5-5-5--5-8-8-8--8-0-0-0-0-0-0---|
 [-----------------pm----------------------|

|----------------------------------------|
|----------------------------------------|
|----------------------------------------|
|-7-7-7----------------------8-8-7-------|
|-5-5-5----------------------5-5-5-------|
|-5-5-5--5-5-5-5--5-8-8-8--8-0-0-0-------|
        [--------pm----------------------|

|------------------------------------------|
|------------------------------------------|
|------------------------------------------|
|-7-7-7------------------------------------|
|-5-5-5------------------------------------|
|-5-5-5--5-5-5-5--5-8-8-8--8-0-0-0-0-0-0---|
         [--------------pm-----------------|

|-------------------------------------------------|
|-------------------------------------------------|
|-3-3-3-2-2-2-------------------------------------|
|-3-3-3-3-3-3-3-3-3-6-3-6/5-8-5-8-1-1/5-8-5-8-1-1-|
|-1-1-1-1-1-1-3-3-3-6-3-6/5-8-5-8-1-1/5-8-5-8-1-1-|
|-------------3-3-3---3--/5---5---1-1/5---5---1-1-|

|----------------------------------------------------|
|----------------------------------------------------|
|-3-3-3-2-2-2----------------------------------------|
|-3-3-3-3-3-3-3-3-3-6-3-6-5-5-5-10-10-10-1-1-1-3-3-1-|
|-1-1-1-1-1-1-3-3-3-6-3-6-5-5-5-10-10-10-1-1-1-3-3-1-|
|-------------3-3-3---3---5-5-5-10-10-10-1-1-1-3-3-1-|

 -------------------------------------------------------|
 -------------------------------------------------------|
 -------------------------------------------8-8-8-------|
 -5-5-5-10-10-10-1-1-1-3-3-1-5-5-5-10-10-10-8-8-8-8-8-8-|
 -5-5-5-10-10-10-1-1-1-3-3-1-5-5-5-10-10-10-6-6-6-8-8-8-|
 -5-5-5-10-10-10-1-1-1-3-3-1-5-5-5-10-10-10-------8-8-8-|

 ----------------------------------------------------|
 ----------------------------------------------------|
 ----------------------------------------------------|
 -5-5-5-10-10-10-1-1-1-3-3-1-6-6-6-6-6-6-6-6-6-6-6---|
 -5-5-5-10-10-10-1-1-1-3-3-1-6-6-6-6-6-6-6-6-6-6-6---|
 -5-5-5-10-10-10-1-1-1-3-3-1-6-6-6-6-6-6-6-6-6-6-6---|
                               [-----pm--------------|

|------------------------------------------|
|------------------------------------------|
|------------------------------------------|
|-7-7-7--7/10-10-10--10-10-10-10--10-8-8-7-|
|-5-5-5--5-5--5--5---5-/8--8--8---8--5-5-5-|
|-5-5-5--5-5--5--5---5-/8--8--8---8--0-0-0-|

|--------------------------------------------------|
|--------------------------------------------------|
|--------------------------------------------------|
|-7-7-7--7/10-10-10--10-10-10-10--10---------------|
|-5-5-5--5-5--5--5---5-/8--8--8---8--0-0-0-0-0-0---|
|-5-5-5--5-5--5--5---5-/8--8--8---8--0-0-0-0-0-0---|
                                    [----pm--------|

|------------------------------------|
|------------------------------------|
|------------------------------------|
|----------------------------8-8-7---|
|----------------------------5-5-5---|
|-5-5-5--5-5-5-5--5-8-8-8--8-0-0-0---|
 [--------------pm-------------------|

|------------------------------------------|
|------------------------------------------|
|------------------------------------------|
|------------------------------------------|
|------------------------------------------|
|-5-5-5--5-5-5-5--5-8-8-8--8-0-0-0-0-0-0---|
 [-----------------pm----------------------|

|----------------------------------------|
|----------------------------------------|
|----------------------------------------|
|-7-7-7----------------------8-8-7-------|
|-5-5-5----------------------5-5-5-------|
|-5-5-5--5-5-5-5--5-8-8-8--8-0-0-0-------|
        [--------pm----------------------|

|------------------------------------------|
|------------------------------------------|
|------------------------------------------|
|-7-7-7------------------------------------|
|-5-5-5------------------------------------|
|-5-5-5--5-5-5-5--5-8-8-8--8-0-0-0-0-0-0---|
         [--------------pm-----------------|

|-------------------------------------------------|
|-------------------------------------------------|
|-3-3-3-2-2-2-------------------------------------|
|-3-3-3-3-3-3-3-3-3-6-3-6/5-8-5-8-1-1/5-8-5-8-1-1-|
|-1-1-1-1-1-1-3-3-3-6-3-6/5-8-5-8-1-1/5-8-5-8-1-1-|
|-------------3-3-3---3--/5---5---1-1/5---5---1-1-|

|----------------------------------------------------|
|----------------------------------------------------|
|-3-3-3-2-2-2----------------------------------------|
|-3-3-3-3-3-3-3-3-3-6-3-6-5-5-5-10-10-10-1-1-1-3-3-1-|
|-1-1-1-1-1-1-3-3-3-6-3-6-5-5-5-10-10-10-1-1-1-3-3-1-|
|-------------3-3-3---3---5-5-5-10-10-10-1-1-1-3-3-1-|

 -------------------------------------------------------|
 -------------------------------------------------------|
 -------------------------------------------8-8-8-------|
 -5-5-5-10-10-10-1-1-1-3-3-1-5-5-5-10-10-10-8-8-8-8-8-8-|
 -5-5-5-10-10-10-1-1-1-3-3-1-5-5-5-10-10-10-6-6-6-8-8-8-|
 -5-5-5-10-10-10-1-1-1-3-3-1-5-5-5-10-10-10-------8-8-8-|

 ----------------------------------------------------|
 ----------------------------------------------------|
 ----------------------------------------------------|
 -5-5-5-10-10-10-1-1-1-3-3-1-6-6-6-6-6-6-6-6-6-6-6---|
 -5-5-5-10-10-10-1-1-1-3-3-1-6-6-6-6-6-6-6-6-6-6-6---|
 -5-5-5-10-10-10-1-1-1-3-3-1-6-6-6-6-6-6-6-6-6-6-6---|
                               [-----pm--------------|

|-------------------------------------------------------------|
|-------------------------------------------------------------|
|-------------------------------------------------------------|
|-0------------------------------------------------------3--3-|
|-0--------8p7-----7p5-----5p3p0-/8------8p7-----7p5-----1--1-|
|-0---0--0-----0-0-----0-0----------0--0-----0-0-----0-0------|

|---------------------------------------------------------------------------|
|---------------------------------------------------------------------------|
|---------------------------------------------------------------------------|
|---------------------------------------------------------------------------|
|-------------8p7---------7p5---------5p3p0-/8-------------8p7---------7p5--|
|-0-0-0-0-0-0-----0-0-0-0-----0-0-0-0----------0-0-0-0-0-0-----0-0-0-0------|
  [----pm----]    [--pm--]    [--pm--]         [----pm----]    [--pm--------|

 ---------------|
 ---------------|
 ---------------|
 ---------3-3-3-|
 ---------1-1-1-|
 -0-0-0-0-------|
  [--pm--]

|------------------------------------------|
|------------------------------------------|
|------------------------------------------|
|-7-7-7--7/10-10-10--10-10-10-10--10-8-8-7-|
|-5-5-5--5-5--5--5---5-/8--8--8---8--5-5-5-|
|-5-5-5--5-5--5--5---5-/8--8--8---8--0-0-0-|

|-------------------------------------------------|
|-------------------------------------------------|
|-3-3-3-2-2-2-------------------------------------|
|-3-3-3-3-3-3-3-3-3-6-3-6/5-8-5-8-1-1/5-8-5-8-1-1-|
|-1-1-1-1-1-1-3-3-3-6-3-6/5-8-5-8-1-1/5-8-5-8-1-1-|
|-------------3-3-3---3--/5---5---1-1/5---5---1-1-|

|------------------------------------------------------|
|------------------------------------------------------|
|-3-3-3-2-2-2------------------------------------------|
|-3-3-3-3-3-3-3-3-3-6-3-6-5-5-5-10-10-10-1-1-1-3-3-3-1-|
|-1-1-1-1-1-1-3-3-3-6-3-6-5-5-5-10-10-10-1-1-1-3-3-3-1-|
|-------------3-3-3---3---5-5-5-10-10-10-1-1-1-3-3-3-1-|
                                               [-pm-]
 -------------------------------------------------------|
 -------------------------------------------------------|
 -------------------------------------------8-8-8-------|
 -5-5-5-10-10-10-1-1-1-3-3-1-5-5-5-10-10-10-8-8-8-8-8-8-|
 -5-5-5-10-10-10-1-1-1-3-3-1-5-5-5-10-10-10-6-6-6-8-8-8-|
 -5-5-5-10-10-10-1-1-1-3-3-1-5-5-5-10-10-10-------8-8-8-|

 -------------------------------------------------------|
 -------------------------------------------------------|
 -------------------------------------------8-8-8-------|
 -5-5-5-10-10-10-1-1-1-3-3-1-5-5-5-10-10-10-8-8-8-8-8-8-|
 -5-5-5-10-10-10-1-1-1-3-3-1-5-5-5-10-10-10-6-6-6-8-8-8-|
 -5-5-5-10-10-10-1-1-1-3-3-1-5-5-5-10-10-10-------8-8-8-|

 ------------------------------------------|
 ------------------------------------------|
 ------------------------------------------|
 -5--5-5-5-10--10-10-10-1--1-1-1-3-3-3-1---|
 -5--5-5-5-10--10-10-10-1--1-1-1-3-3-3-1---|
 -5--5-5-5-10--10-10-10-1--1-1-1-3-3-3-1---|
    [-pm-]     [--pm-----------------------|    [-pm-]

|--------------------------------------------------------------------|
|--------------------------------------------------------------------|
|--------------------------------------------------------------------|
|-5--5-5-5-10--10-10-10-1--1-1-1-3-3-3-1-6-6-6-6-6-6-6-6-6-6-6-6-5---|
|-5--5-5-5-10--10-10-10-1--1-1-1-3-3-3-1-6-6-6-6-6-6-6-6-6-6-6-6-5---|
|-5--5-5-5-10--10-10-10-1--1-1-1-3-3-3-1-6-6-6-6-6-6-6-6-6-6-6-6-5---|
    [-pm-]     [--pm--]    [-pm-]        [-------pm------------------|

Track 5 - Remember:

Tuning - Db Ab Db Gb Bb Eb
KEY: Palm Mute - X
     Bend Half-Step - '
     Bend Full-Step - "
     Hammer On - h
     Slide - /
     Pull Off - p
     Tied Note - ()

INTRO:

Eb|------------------------------------------------------------|
Bb|------------------------------------------------------------|
Gb|------------------------------------------------------------|
Db|-0--2-3-8--2-0-2-3-7--2-3-2-3-0--2-3-8--2-0-2-3-7--0-2--3---|
Ab|-0--2-3-8--2-0-2-3-7--2-3-2-3-0--2-3-8--2-0-2-3-7--0-2--3---|
Db|-0--2-3-8--2-0-2-3-7--2-3-2-3-0--2-3-8--2-0-2-3-7--0-2--3---|
   ----X-X----X-X-X-X----X-X-X-X----X-X----X-X-X-X-------------|

Eb|--------------------------------------------------------------|
Bb|--------------------------------------------------------------|
Gb|--------------------------------------------------------------|
Db|-0--2-3-8--2-0-2-3-7--2-3-2-3-0--2-3-8--2-0-2-3-7-0-2-3-0-7---|
Ab|-0--2-3-8--2-0-2-3-7--2-3-2-3-0--2-3-8--2-0-2-3-7-0-2-3-0-7---|
Db|-0--2-3-8--2-0-2-3-7--2-3-2-3-0--2-3-8--2-0-2-3-7-0-2-3-0-7---|
   ----X-X----X-X-X-X----X-X-X-X----X-X----X-X-X-X---------------|

Repeat entire intro riff twice.


VERSE:

Eb|---------------------------------------------------------------|
Bb|---------------------------------------------------------------|
Gb|---------------------------------------------------------------|
Db|---------------------------------------------------------------|
Ab|----------13----------12------------------------13----------12-|
Db|-0--12-15-----0-12-15-----0-12-15-0-15-0--12-15-----0-12-15----|

Eb|---------------------------------------------------------------------|
Bb|---------------------------------------------------------------------|
Gb|---------------------------------------------------------------------|
Db|------------------------------------------------------------10-10-10-|
Ab|----------13----------12------------------------13----------10-10-10-|
Db|-0--12-15-----0-12-15-----0-12-15-0-15-0--12-15-----0-12-15-10-10-10-|

Repeat entire verse riff twice.

CHORUS:

Eb|---------------------------------------------------------|
Bb|---------------------------------------------------------|
Gb|---------------------------------------------------------|
Db|---10-7---------------10-7---------------10-7------------|
Ab|-8------10-8-7-5-3--8------10-8-7-5-3--8------10-8-7-5-3-|
Db|---------------------------------------------------------|

Eb|----------------------------------------|
Bb|----------------------------------------|
Gb|----------------------------------------|
Db|---10-7-----------------5-5-3-3---------|
Ab|-8------10-8-7-5-3--3-5---------5-5-3h5-|
Db|----------------------------------------|

Eb|-----------------------------------------|
Bb|-----------------------------------------|
Gb|-----------------------------------------|
Db|---10-7----------------------------10-10-|
Ab|-8------10-8-7-5/7-8-8-10-10-12-12-------|
Db|-----------------------------------------|

Eb|----------------------------------------------------------------|
Bb|----------------------------------------------------------------|
Gb|-10-10-10-----10-10-10-----10-10--------10-10-10----10-10-10----|
Db|----------10-----------10--------10/12-----------12----------12-|
Ab|----------------------------------------------------------------|
Db|----------------------------------------------------------------|

Eb|------------------------------------------------------|
Bb|------------------------------------------------------|
Gb|-10-10--------12-14-12'---------------12-14-12'-12-10-|
Db|-------10/12------------12--10--12p10-----------------|
Ab|------------------------------------------------------|
Db|------------------------------------------------------|

FIRST CHORUS ENDING:

Eb|---------------------------------|
Bb|---------------------------------|
Gb|-14"-(14)------------------------|
Db|-----------12"-(12)--------------|
Ab|--------------------12"-(12)-----|
Db|------------------------------12-|

VERSE 2:

Eb|-----------------------------------------------------------------|
Bb|-----------------------------------------------------------------|
Gb|-----------------------------------------------------------------|
Db|-----------------------------------------------------------------|
Ab|----------13----------12------------------------13----------12---|
Db|-0--12-15-----0-12-15-----0-12-15-0-15-0--12-15-----0-12-15------|
   ----X--X------X-X--X------X-X--X--X-X-----X--X------X-X--X-------|

Eb|-----------------------------------------------------------------------|
Bb|-----------------------------------------------------------------------|
Gb|-----------------------------------------------------------------------|
Db|------------------------------------------------------------10-10-10---|
Ab|----------13----------12------------------------13----------10-10-10---|
Db|-0--12-15-----0-12-15-----0-12-15-0-15-0--12-15-----0-12-15-10-10-10---|
   ----X--X------X-X--X------X-X--X--X-X-----X--X------X-X--X-------------|
Repeat entire verse 2 riff twice.

REPEAT CHORUS

SECOND CHORUS ENDING:

Eb|---------------|
Bb|---------------|
Gb|-14"-----------|
Db|------12"------|
Ab|---------------|
Db|---------------|

BRIDGE:

Eb|------------------------------------------------|
Bb|------------------------------------------------|
Gb|------------------------------------------------|
Db|-8---X-X-8/12--12--12-12--8--3-3-3-0--0--0--3-0-|
Ab|-8---X-X-8/12--12--12-12--8--3-3-3-0--0--0--3-0-|
Db|-8---X-X-8/12--12--12-12--8--3-3-3-0--0--0--3-0-|

Eb|---------------------------------------------|
Bb|---------------------------------------------|
Gb|---------------------------------------------|
Db|-8---X-X-8/12--12--12-12--8--3--0--0--0--0-0-|
Ab|-8---X-X-8/12--12--12-12--8--3--0--0--0--0-0-|
Db|-8---X-X-8/12--12--12-12--8--3--0--0--0--0-0-|

Eb|------------------------------------------------|
Bb|------------------------------------------------|
Gb|------------------------------------------------|
Db|-8---X-X-8/12--12--12-12--8--3-3-3-0--0--0--3-0-|
Ab|-8---X-X-8/12--12--12-12--8--3-3-3-0--0--0--3-0-|
Db|-8---X-X-8/12--12--12-12--8--3-3-3-0--0--0--3-0-|

Eb|----------------------------------|
Bb|----------------------------------|
Gb|----------------------------------|
Db|-5--5--5--5--5-5--2--2--2--2--2-2-|
Ab|-5--5--5--5--5-5--2--2--2--2--2-2-|
Db|-5--5--5--5--5-5--2--2--2--2--2-2-|

INTERLUDE:

Eb|-------------------------------------------------------------------|
Bb|-------------------------------------------------------------------|
Gb|-------------------------------------------------------------------|
Db|-------------------------------------------------------------------|
Ab|-0-0-2-3-8-8-2-0-2-3-7-7-2-3-2-3-0-0-2-3-8-8-2-0-2-3-7-7-2-3-2-3---|
Db|-0-0-2-3-8-8-2-0-2-3-7-7-2-3-2-3-0-0-2-3-8-8-2-0-2-3-7-7-2-3-2-3---|
   -X-X-X-X-----X-X-X-X-----X-X-X-X-X-X-X-X-----X-X-X-X-----X-X-X-X---|

REPEAT CHORUS

THIRD CHORUS ENDING:

Eb|-----------------|
Bb|-----------------|
Gb|-14"-14----------|
Db|-----------------|
Ab|-----------------|
Db|-----------------|

Eb|-----------------|
Bb|---------12------|
Gb|-14"-14----------|
Db|-----------------|
Ab|-----------------|
Db|-----------------|

OUTRO:

Eb|------------------------------------------------------------|
Bb|------------------------------------------------------------|
Gb|------------------------------------------------------------|
Db|-0--2-3-8--2-0-2-3-7--2-3-2-3-0--2-3-8--2-0-2-3-7--0-2--3---|
Ab|-0--2-3-8--2-0-2-3-7--2-3-2-3-0--2-3-8--2-0-2-3-7--0-2--3---|
Db|-0--2-3-8--2-0-2-3-7--2-3-2-3-0--2-3-8--2-0-2-3-7--0-2--3---|
   ----X-X----X-X-X-X----X-X-X-X----X-X----X-X-X-X-------------|

Eb|--------------------------------------------------------------|
Bb|--------------------------------------------------------------|
Gb|--------------------------------------------------------------|
Db|-0--2-3-8--2-0-2-3-7--2-3-2-3-0--2-3-8--2-0-2-3-7-0-2-3-0-7---|
Ab|-0--2-3-8--2-0-2-3-7--2-3-2-3-0--2-3-8--2-0-2-3-7-0-2-3-0-7---|
Db|-0--2-3-8--2-0-2-3-7--2-3-2-3-0--2-3-8--2-0-2-3-7-0-2-3-0-7---|
   ----X-X----X-X-X-X----X-X-X-X----X-X----X-X-X-X---------------|

Eb|------------------------------------------------------------|
Bb|------------------------------------------------------------|
Gb|------------------------------------------------------------|
Db|-0--2-3-8--2-0-2-3-7--2-3-2-3-0--2-3-8--2-0-2-3-7--0-2--3---|
Ab|-0--2-3-8--2-0-2-3-7--2-3-2-3-0--2-3-8--2-0-2-3-7--0-2--3---|
Db|-0--2-3-8--2-0-2-3-7--2-3-2-3-0--2-3-8--2-0-2-3-7--0-2--3---|
   ----X-X----X-X-X-X----X-X-X-X----X-X----X-X-X-X-------------|

Eb|----------------------------------------------------------|
Bb|----------------------------------------------------------|
Gb|----------------------------------------------------------|
Db|-0--2-3-8--2-0-2-3-7--2-3-2-3-0--2-3-8--2-0-2-3-7--0-2----|
Ab|-0--2-3-8--2-0-2-3-7--2-3-2-3-0--2-3-8--2-0-2-3-7--0-2----|
Db|-0--2-3-8--2-0-2-3-7--2-3-2-3-0--2-3-8--2-0-2-3-7--0-2----|
   ----X-X----X-X-X-X----X-X-X-X----X-X----X-X-X-X-----------|

Track 6 - Intoxication:

Tuning: Db Ab Db Gb Bb Eb

Intro:

Fig. 1 x4

e------------------------------------------------------------------|
b------------------------------------------------------------------|
g------------------------------------------------------------------|
d-65-2--2-5-3-2---2---5--3-5-2--65-2--2-5-3-2---2---3--2-3-0-3-----|
a-65-2--2-5-3-2---2---5--3-5-2--65-2--2-5-3-2---2---3--2-3-0-3-----|
d-65-2--2-5-3-2---2---5--3-5-2--65-2--2-5-3-2---2---3--2-3-0-3-----|

Verses:

x2
e----------------------------------------------------------------------|
b----------------------------------------------------------------------|
g----------------------------------------------------------------------|
d-65-2---2-5-3-2---2---5--3-5-2---65-2---2-5-3-2---2---3--2-3-0-3------|
a-65-2---2-5-3-2---2---5--3-5-2---65-2---2-5-3-2---2---3--2-3-0-3------|
d-65-2---2-5-3-2---2---5--3-5-2---65-2---2-5-3-2---2---3--2-3-0-3------|

Fig. 1 x2

Pre Chorus: x2

Fig. 2

e-----------------------------------------------------------------|
b-----------------------------------------------------------------|
g-----------------------------------------------------------------|
d-2----2-x-x-x-3---3-x-x-3/7-7-7--2----2-x-x-x-3---3-3-3--0-------|
a-2----2-x-x-x-3---3-x-x-3/7-7-7--2----2-x-x-x-3---3-3-3--0-------|
d-2----2-x-x-x-3---3-x-x-3/7-7-7--2----2-x-x-x-3---3-3-3--0---0---|

Lead Fig. 1 pm

e-----------------------------------------------------------------|
b-----------------------------------------------------------------|
g-5-5-5-4-4-4-5-5-5-7-7-7-5-5-----5-5-5-4-4-4-5-5-5-7-7-7-5-5-----|
d-----------------------------7-7-----------------------------7-7-|
a-----------------------------------------------------------------|
d-----------------------------------------------------------------|

Fig. 2 cont.

e-----------------------------------------------------------------|
b-----------------------------------------------------------------|
g-----------------------------------------------------------------|
d-2----2-x-x-x-3---3-x-x-3/7-7-7--10--10-x-10-x-5---5---x-5---5---|
a-2----2-x-x-x-3---3-x-x-3/7-7-7--10--10-x-10-x-5---5---x-5---5---|
d-2----2-x-x-x-3---3-x-x-3/7-7-7--10--10-x-10-x-5---5---x-5---5---|

Lead Fig. 1 pm cont.

e-----------------------------------------------------------------|
b-----------------------------------------------------------------|
g-5-5-5-4-4-4-5-5-5-7-7-7-5-5-----5-5-5-4-4-4-5-5-5-7-7-7-5-5-7-7-|
d-----------------------------7-7---------------------------------|
a-----------------------------------------------------------------|
d-----------------------------------------------------------------|

Chorus:

Fig. 3

e----------------------------------------------------|
b----------------------------------------------------|
g----------------------------------------------------|
d-3----3--3--3-----3--3--3--2----2--2--2-----2--2--2-|
a-3----3--3--3-----3--3--3--2----2--2--2-----2--2--2-|
d-3----3--3--3-----3--3--3--2----2--2--2-----2--2--2-|

Lead Fig. 2 w/ wah

e----------------------------------------------------|
b-0----------1--------3-----0----------1--------3--3-|
g----------------------------------------------------|
d----------------------------------------------------|
a----------------------------------------------------|
d----------------------------------------------------|

Fig. 4

e-0----0--0--1-----0-----0--0----0--0--1-----0-------|
b-0----0--0-----------3-----0----0--0-----------3--0-|
g-2----2--2-----------------1----1--1----------------|
d-3----3--3-----------------2----2--2----------------|
a---------------------------2----2--2----------------|
d----------------------------------------------------|

Fig. 3 cont.

e-----------------------------------------------------------------|
b-----------------------------------------------------------------|
g-----------------------------------------------------------------|
d-10----10--10--10-----10-10--10---10-10--5---5--5--5-----5--5--5-|
a-10----10--10--10-----10-10--10---10-10--5---5--5--5-----5--5--5-|
d-10----10--10--10-----10-10--10---10-10--5---5--5--5-----5--5--5-|

Lead Fig. 2 w/ wah  cont.

e-----------------------------------------------------------------|
b-0--------------1------------3-----------0---------1--------3--3-|
g-----------------------------------------------------------------|
d-----------------------------------------------------------------|
a-----------------------------------------------------------------|
d-----------------------------------------------------------------|

Fig. 4 cont.

e-----------------------------------------------------------------|
b-----------------------------------------3---3--3--3-----3--5--3-|
g---------------10-----12-12--12---12-12--0---0--0--0-----0-------|
d-14----14--14--10-----10-10--10---10-10--0---0--0--0-----0-------|
a-10----10--10--10-----10-10--10---10-10--x---x--x--x-----x-------|
d-10----10--10--10-----10-10--10---10-10--5---5--5--5-----5-------|

end Fig 4 and Lead Fig 2

Fig. 3  cont.

e-----------------------------------------------------------------|
b-----------------------------------------------------------------|
g-----------------------------------------------------------------|
d-0----------------------------5---5--5-5--5--5---5-5-3-----------|
a-0----------------------------5---5--5-5--5--5---5-5-3-----------|
d-0----0-0-0-0---0---0--0-0-0--5---5--5-5--5--5---5-5-3-----------|

Interlude:

x2
e-----------------------------------------------------------------|
b-----------------------------------------------------------------|
g-----------------------------------------------------------------|
d-2---2--x-x-x-2---2---2-x-x-x-x--2---2--x-x-x-2---2---2-x-x---x--|
a-2---2--x-x-x-2---2---2-x-x-x-x--2---2--x-x-x-2---2---2-x-x---x--|
d-2---2--x-x-x-2---2---2-x-x-x-x--2---2--x-x-x-2---2---2-x-x---x--|

Outro:

e------------------------------------------------------------------|
b------------------------------------------------------------------|
g------------------------------------------------------------------|
d-65-2--x-x-x-2---2---2-x-x-x-x--65-2--x-x-x-2---2---2-x-x---x-----|
a-65-2--x-x-x-2---2---2-x-x-x-x--65-2--x-x-x-2---2---2-x-x---x-----|
d-65-2--x-x-x-2---2---2-x-x-x-x--65-2--x-x-x-2---2---2-x-x---x-----|

e------------------------------------------------------------------|
b------------------------------------------------------------------|
g------------------------------------------------------------------|
d-65-2--x-x-x-2---2---2-x-x-x-x--2---2--x-x-x-2---2---2-x-x--------|
a-65-2--x-x-x-2---2---2-x-x-x-x--2---2--x-x-x-2---2---2-x-x--------|
d-65-2--x-x-x-2---2---2-x-x-x-x--2---2--x-x-x-2---2---2-x-x--------|

Track 7 - Rise:

Tuning: Db Ab Db Gb Bb Eb


Intro: Fig. 1 w/ chorus/vibrato effect

gtr. 1

e-------------------------------------------------------------------|
b-------------------------------------------------------------------|
g-------------------------------------------------------------------|
d-------------------------------------------------------------------|
a-------------------------------------------------------------------|
d-10h12-0-12-0-12-0-12-12-10h12-10-10h12-0-12-0-12-0-12-12-10h12-10-|

e-------------------------------------------------------------------|
b-------------------------------------------------------------------|
g-------------------------------------------------------------------|
d-------------------------------------------------------------------|
a-------------------------------------------------------------------|
d-10h12-0-12-0-12-0-12-12-10h12-10-6-6-6-6-6-6-/-15-15-15-10-10-10--|

then,

gtr. 1 and Fig. 1a (gtr. 2) (gtr. 1 plays lower notes)

e-------------------------------------------------------------------|
b-------------------------------------------------------------------|
g-------------------------------------------------------------------|
d-10h12-0-12-0-12-0-12-12-10h12-10-10h12-0-12-0-12-0-12-12-10h12-10-|
a-------------------------------------------------------------------|
d-10h12-0-12-0-12-0-12-12-10h12-10-10h12-0-12-0-12-0-12-12-10h12-10-|

e-------------------------------------------------------------------|
b-------------------------------------------------------------------|
g------------------------------------------------10-10-10-----------|
d-10h12-0-12-0-12-0-12-12-10h12-10-6-6-6-6-6-6-/----------10-10-10--|
a-------------------------------------------------------------------|
d-10h12-0-12-0-12-0-12-12-10h12-10-6-6-6-6-6-6-/-15-15-15-10-10-10--|

Verses: (V2&3 play Fig. 1a too)
x3
e-------------------------------------------------------------------|
b-------------------------------------------------------------------|
g-------------------------------------------------------------------|
d-------------------------------------------------------------------|
a-10h12---12---12---12-12-10h12-10-10h12---12---12---12-12-10h12-10-|
d-10h12-0-12-0-12-0-12-12-10h12-10-10h12-0-12-0-12-0-12-12-10h12-10-|

e-------------------------------------------------------------------|
b-------------------------------------------------------------------|
g-------------------------------------------------------------------|
d-------------------------------------------------------------------|
a-10h12---12---12---12-12-10h12-10-6-6-6-6-6-6-/-15-15-15-10-10-10--|
d-10h12-0-12-0-12-0-12-12-10h12-10-6-6-6-6-6-6-/-15-15-15-10-10-10--|

x2, pm throughout
e--------------------------------------------------------------|
b--------------------------------------------------------------|
g--------------------------------------------------------------|
d--------------------------------------------------------------|
a-------0-----------------0------------0-----------------0-----|
d-0-0-0-0-------------0-0-0------0-0-0-0-------------0-0-0-----|

Chorus:

e-------------------------------------------|
b-------------------------------------------|
g-7----7--10-10--1010--7----7--10-10--1010--|
d-7----7--10-10--1010--7----7--10-10--1010--|
a-5----5---8--8---8-8--5----5---8--8---8-8--|
d-------------------------------------------|

e---------------------------------------------|
b---------------------------------------------|
g-7----7--10-10--1010-------------------------|
d-7----7--10-10--1010-------------------------|
a-5----5---8--8---8-8--7----7-------------5---|
d----------------------7----7--7-7-7-7-7--5---|

e-------------------------------------------|
b-------------------------------------------|
g-7----7--10-10--1010--7----7--10-10--1010--|
d-7----7--10-10--1010--7----7--10-10--1010--|
a-5----5---8--8---8-8--5----5---8--8---8-8--|
d-------------------------------------------|

e---------------------------------------------|
b---------------------------------------------|
g-7----7--10-10--1010-------------------------|
d-7----7--10-10--1010-------------------------|
a-5----5---8--8---8-8--7----7-------------10--|
d----------------------7----7--7-7-7-7-7--10--|

Bridge:

e-------------------------------------------|
b-------------------------------------------|
g-------------------------------------------|
d--------------------------------------12---|
a-12------10---12-10---12------10---12------|
d--8-------------------12-------------------|

e-------------------------------------------|
b-------------------------------------------|
g-------------------------------------------|
d-------------------------------------------|
a-12------10---12-10---12------10---12------|
d--8-------------------12--------------12---|

e-------------------------------------------|
b-------------------------------------------|
g-------------------------------------------|
d--------------------------------------12---|
a-12------10---12-10---12------10---12------|
d--8-------------------12-------------------|

1st ending, pm
e-----------------------------------------------|
b-----------------------------------------------|
g-----------------------------------------------|
d-----------------------------------------------|
a-3-3-3-3-3-3-3-3-3-3-3-3-8-8-8-8-8-8-8-8-8-----|
d-3-3-3-3-3-3-3-3-3-3-3-3-8-8-8-8-8-8-8-8-8-----|

2nd ending, pm
e-----------------------------------------------|
b-----------------------------------------------|
g-----------------------------------------------|
d-----------------------------------------------|
a-3-3-3-3-3-3-3-3-3-3-3-3-8-8-8-8-8-8-8-8-8-8-8-|
d-3-3-3-3-3-3-3-3-3-3-3-3-8-8-8-8-8-8-8-8-8-8-8-|

Interlude:

x3
e-------------------------------------------------|
b-------------------------------------------------|
g-------------------------------------------------|
d-------------------------------------------------|
a-------------------------------------------------|
d-0---0---3-1-0---0---1-3-0---0---3-1-0-1-0-1-0-3-|

e--------------------------------------------------|
b--------------------------------------------------|
g--------------------------------------------------|
d--------------------------------------------------|
a--------------------------------------------------|
d-0---0---3-1-0---0---1-3-0---0---3-1-0-1-0-15-----|

x3
e-------------------------------------------------|
b-------------------------------------------------|
g-------------------------------------------------|
d-------------------------------------------------|
a-------------------------------------------------|
d-0---0---3-1-0---0---1-3-0---0---3-1-0-1-0-1-0-3-|

e--------------------------------------------------|
b--------------------------------------------------|
g--------------------------------------------------|
d--------------------------------------------------|
a--------------------------------------------------|
d-0---0---3-1-0---0---1-3-0---0---3-1-0-1-0-15-----|

e-------------------------------------------------|
b-------------------------------------------------|
g-------------------------------------------------|
d-------------------------8-8-8-8-8-8-8-8-8-10----|
a-8-8-8-8-8-8-8-8-8-8-8-8-8-8-8-8-8-8-8-8-8-10----|
d-8-8-8-8-8-8-8-8-8-8-8-8-8-8-8-8-8-8-8-8-8-10----|
3rd ending
e-----------------------------------------------|
b-----------------------------------------------|
g-----------------------------------------------|
d-------------------------8-8-8-8-8-8-8-8-8-10--|
a-3-3-3-3-3-3-3-3-3-3-3-3-8-8-8-8-8-8-8-8-8-10--|
d-3-3-3-3-3-3-3-3-3-3-3-3-8-8-8-8-8-8-8-8-8-10--|

after 3rd chorus

x3
e-------------------------------------------------|
b-------------------------------------------------|
g-------------------------------------------------|
d-------------------------------------------------|
a-8-8-8-8-8-8---8-8-8-8-8-------------------------|
d-8-8-8-8-8-8---8-8-8-8-8-0-0-0-0-0-0---0-0-0-0-0-|

e-------------------------------------------------|
b-------------------------------------------------|
g-------------------------------------------------|
d-------------------------------------------------|
a-3-3-3-3-3-3-3-3-3-3-3-3-8-8-8-8-8-8-8-8-8-8-8-8-|
d-3-3-3-3-3-3-3-3-3-3-3-3-8-8-8-8-8-8-8-8-8-8-8-8-|

Track 8 - Mistress:

Tuning: Db Ab Db Gb Bb Eb


Intro:

Fig. 1                                                         end

e-----------------------------------------------------------------|
b-----------------------------------------------------------------|
g-----------------------------------------------------------------|
d-2---2--2/9-9-9-9-5-5-5-7-7-5---2---2--2/9-9-9-9-5-5-5-7-7-10-10-|
a-2---2--2/9-9-9-9-5-5-5-7-7-5---2---2--2/9-9-9-9-5-5-5-7-7-10-10-|
d-2---2--2/9-9-9-9-5-5-5-7-7-5-2-2---2--2/9-9-9-9-5-5-5-7-7-10-10-|

e-----------------------------------------------------------------|
b-----------------------------------------------------------------|
g-----------------------------------------------------------------|
d-2---2--2/9-9-9-9-5-5-5-7-7-5---2---2--2/9-9-9-9-5-5-5--12~~~~~~-|
a-2---2--2/9-9-9-9-5-5-5-7-7-5---2---2--2/9-9-9-9-5-5-5-----------|
d-2---2--2/9-9-9-9-5-5-5-7-7-5-2-2---2--2/9-9-9-9-5-5-5-----------|

Fig. 1 x2

Verses:
x2,      pm
e-----------------------------------------------------------------|
b-----------------------------------------------------------------|
g-----------------------------------------------------------------|
d-2---2--------------------------2---2----------------------------|
a-2---2--------------------------2---2----------------------------|
d-2---2--2/9-9-9-9-5-5-5-7-7-5-0-2---2--2/9-9-9-9-5-5-5-7-7-10-10-|

Fig. 1 x2 with

x2
e-----------------------------------------------------------------|
b-----------------------------------------------------------------|
g-----------------------------------------------------------5-5---|
d-2---2--2/9-9-9-9-5-5-5-7-7-5-0-2---2--2/9-9-9-9-5-5-5-7-7-------|
a-2---2--------------------------2---2----------------------------|
d-2---2--------------------------2---2----------------------------|

Chorus: x2

e----------------------------------------------------------|
b----------------------------------------------------------|
g------------------------------2---------------------------|
d-9-----x-x-x------------------0-----x-x-x-5---------------|
a-9-----x-x-x-4---5---4---x-x--0-----x-x-x-5---7----5-2----|
d-9-----x-x-x-4---4---4---x-x--0-----x-x-x-5---5----5-2----|

e----------------------------------------------------------|
b----------------------------------------------------------|
g------------------------------2---------------------------|
d-9-----x-x-x------------------0-----x-x-x-5---------------|
a-9-----x-x-x-4---5---4---x-x--0-----x-x-x-5---7----9--5---|
d-9-----x-x-x-4---4---4---x-x--0-----x-x-x-5---5----5--5---|

then,

1st ending
e----------------------------------------------------------|
b----------------------------------------------------------|
g----------------------------------------------------------|
d----------------------------------------------------------|
a-7----7--7--7----7-7---7--7--7----7--7--5----5---7-5-5-5--|
d-6----6--6--6----6-6---6--6--5----5--5--5----5---5-5-5-5--|

2nd ending
e----------------------------------------------------------|
b----------------------------------------------------------|
g----------------------------------------------------------|
d----------------------------------------------------------|
a-7----7--7--7----7-7---7--7--7----7--7--5----5---5---5----|
d-6----6--6--6----6-6---6--6--5----5--5--5----5---5---5----|

let ring
e-----------------------------------|
b-----------------------------------|
g-----------------------------------|
d-3---------------------------------|
a-2---------------------------------|
d-----------------------------------|

Bridge:

x3
e-----------------------------------------------------------------|
b---0---------------3---2-------2---------------------------------|
g-------0-------0-----4-----2-------------------------------------|
d-----4-----4-----4-----------4----------5---5-----0-----4----4---|
a-2-----------2--------------------5-----5---5-----0-----5----4---|
d----------------------------------5-----5---5-----0-----4----4---|

then,
e-----------------------------------------------------------------|
b---0---------------3---2-------2---------------------------------|
g-------0-------0-----4-----2-------------------------------------|
d-----4-----4-----4-----------4----------5---5-----0-----4--------|
a-2-----------2--------------------5-----5---5-----0-----5----4---|
d----------------------------------5-----5---5-----0-----4----4---|

Interlude:

gtr. 1

e-----------------------------------------------------------------|
b-----------------------------------------------------------------|
g-----------------------------------------------------------------|
d-----------------------------------------------------------------|
a-2--2------------2--2-------------2--2------------2--2-----------|
d-2--2------------2--2-------------2--2------------2--2-----------|

gtr. 2 (w/ chorus effect)

e-----------------------------------------------------------------|
b-----------------------------------------------------------------|
g--------3----------------6----------------3---------------6------|
d-----------------------------------------------------------------|
a-----------------------------------------------------------------|
d--------2----------------5----------------2---------------5------|

Outro Chorus:

e-----------------------------------------------------------------|
b-----------------------------------------------------------------|
g-----------------------------------------------------------------|
d-2---2--2/9-9-9-9-5-5-5-7-7-5---2---2--2/9-9-9-9-5-5-5-7-7-10-10-|
a-2---2--2/9-9-9-9-5-5-5-7-7-5---2---2--2/9-9-9-9-5-5-5-7-7-10-10-|
d-2---2--2/9-9-9-9-5-5-5-7-7-5-2-2---2--2/9-9-9-9-5-5-5-7-7-10-10-|

e-----------------------------------------------------------------|
b-----------------------------------------------------------------|
g-----------------------------------------------------------------|
d-2---2--2/9-9-9-9-5-5-5-7-7-5---2---2--2/9-9-9-9-5-5-5-----------|
a-2---2--2/9-9-9-9-5-5-5-7-7-5---2---2--2/9-9-9-9-5-5-5-----------|
d-2---2--2/9-9-9-9-5-5-5-7-7-5-2-2---2--2/9-9-9-9-5-5-5-/14-------|

x2
e-----------------------------------------------------------------|
b-----------------------------------------------------------------|
g-----------------------------------------------------------------|
d-2---2--2/9-9-9-9-5-5-5-7-7-5---2---2--2/9-9-9-9-5-5-5-7-7-10-10-|
a-2---2--2/9-9-9-9-5-5-5-7-7-5---2---2--2/9-9-9-9-5-5-5-7-7-10-10-|
d-2---2--2/9-9-9-9-5-5-5-7-7-5-2-2---2--2/9-9-9-9-5-5-5-7-7-10-10-|

e-----------------------------------|
b-----------------------------------|
g-----------------------------------|
d-2---2-----------------------------|
a-2---2-----------------------------|
d-2---2-----------------------------|

Track 9 - Breathe:

Tuning: Db Ab Db Gb Bb eb

INTRO: x2
eb|------------------------------------------------------------------------|
Bb|--------------------------------------13-12-----------------------------|
Gb|--------xx---------xx--------x-x-9-10--------------x--------------------|
Db|-9h10-9-xx-9h10-12-xx-9h10-9----------------9h10-9-x-9h10-12-7-----5----|
Ab|-0----0----0----0-----0----0----------------0----0---0----0--5--3--3--5-|
Db|----------------------------------------------------------------3-----5-|

VERSE: x2
|------------------------------------------------------------------------|
|------------------------------------------------------------------------|
|--------xx---------xx------------------------------x--------------------|
|-9h10-9-xx-9h10-12-xx-9h10-9-------------9--9h10-9-x-9h10-12-7-----5----|
|-0----0----0----0-----0----0----------7-----0----0---0----0--5--3--3--5-|
|----------------------------------------------------------------3-----5-|

|------------------------------------------------------------------------|
|--------------------------------------13-12-----------------------------|
|--------xx---------xx--------x-x-9-10--------------x--------------------|
|-9h10-9-xx-9h10-12-xx-9h10-9----------------9h10-9-x-9h10-12-7-----5----|
|-0----0----0----0-----0----0----------------0----0---0----0--5--3--3--5-|
|----------------------------------------------------------------3-----5-|

|-----------------|
|-----------------|
|-----------------|
|-2-2-2-2-2-2-2-2-|
|-2-2-2-2-2-2-2-2-|
|-2-2-2-2-2-2-2-2-|

PRE-CHORUS:
|--------------------------------------------------------------------|
|--------------------------------------------------------------------|
|--------------------------------------------------------------------|
|---------------000-0000-0000-------------------------------------2--|
|-333-3333-3333-000-0000-0000-101010-10101010-10101010-333-3333-3-2--|
|-333-3333-3333-000-0000-0000-101010-10101010-10101010-333-3333-3-2--|

|--------------------------------------------------------------------|
|--------------------------------------------------------------------|
|--------------------------------------------------------------------|
|---------------222-2222-2222-0-0-0-0-0-0-0--------------------------|
|-333-3333-3333-222-2222-2222-0-0-0-0-0-0-0-14-/15-14/15-14/15-14/15-|
|-333-3333-3333-222-2222-2222-0-0-0-0-0-0-0-14-/15-14/15-14/15-14/15-|

CHORUS:
Guitar 2
|------------------8-8-10-10-8--8--8--8--0-0-0-0-0-0-0-0-0-------------8-8-|
|1010---101010-----x-x--x--x-x--x--x--x----5-5-5-5-5-5-5-51010-101010--x-x-|
|-x-x----x-x-x-----5-5--7--7-5--5--5--5--------------------x-x--x-x-x--5-5-|
|-7-7----7-7-7---------------------------------------------7-7--7-7-7------|
|--------------------------------------------------------------------------|
|--------------------------------------------------------------------------|
Guitar 1 (NOTE: bend only the 13. Bend with third finger, hold 10 with first finger)
|-----------------------10-------------------------------------------------|
|-----------------------13b------------------------------------------------|
|-------------------------------2--2-----2---------------------------------|
|-7-7--x5-5-5-x0-0-0---------0--0--0-----0-3-3-3-3-3-3-3-3-5-5-5-5-5-5-5-3-|
|-7-7--x5-5-5-x0-0-0---------0--0--0-----0-3-3-3-3-3-3-3-3-5-5-5-5-5-5-5-3-|
|-7-7--x5-5-5-x0-0-0---------0--0--0-----0-3-3-3-3-3-3-3-3-5-5-5-5-5-5-5-3-|

Guitar 2
|------------------8-8-10-10-8--8--8--8--------------------0-0-0-0-0-0-----|
|1010---101010-----x-x--x--x-x--x--x--x--------------------3-3-3-3-3-0-8---|
|-x-x----x-x-x-----5-5--7--7-5--5--5--5--------------------------------7---|
|-7-7----7-7-7---------------------------------------------------------6---|
|----------------------------------------------------------------------7---|
|--------------------------------------------------------------------------|
Guitar 1
|--------------------------------------------------------------------------|
|------------------------3-------------------------------------------------|
|------------------------5b--2--2--2-----2-----------------------------0---|
|-7-7--x5-5-5-x0-0-0---------0--0--0-----0-3-3-3-3-3-3-3-3-2-2-2-2-2-2-2---|
|-7-7--x5-5-5-x0-0-0---------0--0--0-----0-3-3-3-3-3-3-3-3-2-2-2-2-2-2-2---|
|-7-7--x5-5-5-x0-0-0---------0--0--0-----0-3-3-3-3-3-3-3-3-2-2-2-2-2-2-2---|

BRIDGE: x2
|------------------------------------------------------------------------|
|--------------------------------------13-12-----------------------------|
|--------xx---------xx--------x-x-9-10--------------x--------------------|
|-9h10-9-xx-9h10-12-xx-9h10-9----------------9h10-9-x-9h10-12-7-----5----|x2
|-0----0----0----0-----0----0----------------0----0---0----0--5--3--3--5-|
|----------------------------------------------------------------3-----5-|

VERSE: x2
|------------------------------------------------------------------------|
|------------------------------------------------------------------------|
|--------xx---------xx------------------------------x--------------------|
|-9h10-9-xx-9h10-12-xx-9h10-9-------------9--9h10-9-x-9h10-12-7-----5----|
|-0----0----0----0-----0----0----------7-----0----0---0----0--5--3--3--5-|
|----------------------------------------------------------------3-----5-|

|------------------------------------------------------------------------|
|--------------------------------------13-12-----------------------------|
|--------xx---------xx--------x-x-9-10--------------x--------------------|
|-9h10-9-xx-9h10-12-xx-9h10-9----------------9h10-9-x-9h10-12-7-----5----|
|-0----0----0----0-----0----0----------------0----0---0----0--5--3--3--5-|
|----------------------------------------------------------------3-----5-|

|-----------------|
|-----------------|
|-----------------|
|-2-2-2-2-2-2-2-2-|
|-2-2-2-2-2-2-2-2-|
|-2-2-2-2-2-2-2-2-|

PRE-CHORUS:
|--------------------------------------------------------------------|
|--------------------------------------------------------------------|
|--------------------------------------------------------------------|
|---------------000-0000-0000-------------------------------------2--|
|-333-3333-3333-000-0000-0000-101010-10101010-10101010-333-3333-3-2--|
|-333-3333-3333-000-0000-0000-101010-10101010-10101010-333-3333-3-2--|

|--------------------------------------------------------------------|
|--------------------------------------------------------------------|
|--------------------------------------------------------------------|
|---------------222-2222-2222-0-0-0-0-0-0-0--------------------------|
|-333-3333-3333-222-2222-2222-0-0-0-0-0-0-0-14-/15-14/15-14/15-14/15-|
|-333-3333-3333-222-2222-2222-0-0-0-0-0-0-0-14-/15-14/15-14/15-14/15-|

CHORUS: x2
Guitar 2
|------------------8-8-10-10-8--8--8--8--0-0-0-0-0-0-0-0-0-------------8-8-|
|1010---101010-----x-x--x--x-x--x--x--x----5-5-5-5-5-5-5-51010-101010--x-x-|
|-x-x----x-x-x-----5-5--7--7-5--5--5--5--------------------x-x--x-x-x--5-5-|
|-7-7----7-7-7---------------------------------------------7-7--7-7-7------|
|--------------------------------------------------------------------------|
|--------------------------------------------------------------------------|
Guitar 1
|-----------------------10-------------------------------------------------|
|-----------------------13b------------------------------------------------|
|-------------------------------2--2-----2---------------------------------|
|-7-7--x5-5-5-x0-0-0---------0--0--0-----0-3-3-3-3-3-3-3-3-5-5-5-5-5-5-5-3-|
|-7-7--x5-5-5-x0-0-0---------0--0--0-----0-3-3-3-3-3-3-3-3-5-5-5-5-5-5-5-3-|
|-7-7--x5-5-5-x0-0-0---------0--0--0-----0-3-3-3-3-3-3-3-3-5-5-5-5-5-5-5-3-|

Guitar 2
|------------------8-8-10-10-8--8--8--8--------------------0-0-0-0-0-0-----|
|1010---101010-----x-x--x--x-x--x--x--x--------------------3-3-3-3-3-0-8---|
|-x-x----x-x-x-----5-5--7--7-5--5--5--5--------------------------------7---|
|-7-7----7-7-7---------------------------------------------------------6---|
|----------------------------------------------------------------------7---|
|--------------------------------------------------------------------------|
Guitar 1
|--------------------------------------------------------------------------|
|------------------------3-------------------------------------------------|
|------------------------5b--2--2--2-----2-----------------------------0---|
|-7-7--x5-5-5-x0-0-0---------0--0--0-----0-3-3-3-3-3-3-3-3-2-2-2-2-2-2-2---|
|-7-7--x5-5-5-x0-0-0---------0--0--0-----0-3-3-3-3-3-3-3-3-2-2-2-2-2-2-2---|
|-7-7--x5-5-5-x0-0-0---------0--0--0-----0-3-3-3-3-3-3-3-3-2-2-2-2-2-2-2---|

BRIDGE: (play this riff, then the next, then
         this a third time..hence the 1.3.)
                                                     1.3.
|--------------------------------------------------------|
|--------------------------------------------------------|
|--------------------------------------------------------|
|-5-7---7-10-7-5-7---------12-12---10-10---9-9---10---10-|
|-0-0-0-0----0-0-0-0-0-0-0--0--0-0--0--0-0-0-0-0--0-0----|
|--------------------------------------------------------|
PM    *      *     *******       *       *     *    *
                                                 2.
|--------------------------------------------------|
|--------------------------------------------------|
|--------------------------------------------------|
|-5-7---7-10-7-5-7---------5-7---5-7---5-7---------|
|-0-0-0-0----0-0-0-0-0-0-0-0-0-0-0-0-0-0-0-5-5-5-5-|
|------------------------------------------5-5-5-5-|
PM    *      *     *******     *     *     *******

|--------------------------------------------------|
|--------------------------------------------------|
|--------------------------------------------------|
|-5-7---7-10-7-5-7---------------------------------|
|-0-0-0-0----0-0-0-0-0-0-0-10-10-xx-12-12-xx-10-10-|
|--------------------------10-10-xx-12-12-xx-10-10-|
PM    *      *     *******

|------------------------|------------------------|
|------------------------|------------------------|
|------------------------|------------------------|
|------------------------|------------------------|
|(10)--------------------|(10)--------------------|
|(10)--------------------|(10)--------------------|

CHORUS: x2
Guitar 2
|------------------8-8-10-10-8--8--8--8--0-0-0-0-0-0-0-0-0-------------8-8-|
|1010---101010-----x-x--x--x-x--x--x--x----5-5-5-5-5-5-5-51010-101010--x-x-|
|-x-x----x-x-x-----5-5--7--7-5--5--5--5--------------------x-x--x-x-x--5-5-|
|-7-7----7-7-7---------------------------------------------7-7--7-7-7------|
|--------------------------------------------------------------------------|
|--------------------------------------------------------------------------|
Guitar 1
|-----------------------10-------------------------------------------------|
|-----------------------13b------------------------------------------------|
|-------------------------------2--2-----2---------------------------------|
|-7-7--x5-5-5-x0-0-0---------0--0--0-----0-3-3-3-3-3-3-3-3-5-5-5-5-5-5-5-3-|
|-7-7--x5-5-5-x0-0-0---------0--0--0-----0-3-3-3-3-3-3-3-3-5-5-5-5-5-5-5-3-|
|-7-7--x5-5-5-x0-0-0---------0--0--0-----0-3-3-3-3-3-3-3-3-5-5-5-5-5-5-5-3-|

Guitar 2
|------------------8-8-10-10-8--8--8--8----0-0-0-0-0-0-0-0-0-0-0-0-0-0-0-0-|
|1010---101010-----x-x--x--x-x--x--x--x----5-5-5-5-5-5-5-5-3-3-3-3-3-3-3-3-|
|-x-x----x-x-x-----5-5--7--7-5--5--5--5------------------------------------|
|-7-7----7-7-7-------------------------------------------------------------|
|--------------------------------------------------------------------------|
|--------------------------------------------------------------------------|
Guitar 1
|--------------------------------------------------------------------------|
|------------------------3-------------------------------------------------|
|------------------------5b--2--2--2-----2---------------------------------|
|-7-7--x5-5-5-x0-0-0---------0--0--0-----0-3-3-3-3-3-3-3-3-2-2-2-2-2-2-2-2-|
|-7-7--x5-5-5-x0-0-0---------0--0--0-----0-3-3-3-3-3-3-3-3-2-2-2-2-2-2-2-2-|
|-7-7--x5-5-5-x0-0-0---------0--0--0-----0-3-3-3-3-3-3-3-3-2-2-2-2-2-2-2-2-|

OUTRO:
Guitar 2
|-0-0-0-0-0-0-0-0-0-0-0-0-0-0-0-0-0-0-0-0-0-0-0-0-0-0-0-0------------|
|-5-5-5-5-5-5-5-5-3-3-3-3-3-3-3-3-5-5-5-5-5-5-5-5-3-3-3-3-0-0--------|
|-------------------------------------------------------------0---2~-|
|-----------------------------------------------------------------2~-|
|-----------------------------------------------------------------0~-|
|--------------------------------------------------------------------|

Guitar 1
|--------------------------------------------------------------------|
|--------------------------------------------------------------------|
|--------------------------------------------------------------------|
|-3-3-3-3-3-3-3-3-2-2-2-2-2-2-2-2-3-3-3-3-3-3-3-3-2-2-2-2-2-2-2-2-7~-|
|-3-3-3-3-3-3-3-3-2-2-2-2-2-2-2-2-3-3-3-3-3-3-3-3-2-2-2-2-2-2-2-2-7~-|
|-3-3-3-3-3-3-3-3-2-2-2-2-2-2-2-2-3-3-3-3-3-3-3-3-2-2-2-2-2-2-2-2-7~-|

Track 10 - Bound:

Tuning: Db Ab Db Gb Bb Eb

     Intro
Eb:||---------------------------------------------------------------------|
Bb:||---------------------------------------------------------------------|
Gb:||---------------------------------------------------------------------|
Db:||---------------------------------------------------------------------|
Ab:||---------------------------------------------------------------------|
Db:||--3-3-3-0-0-0-2-2-2-5-5-5-5-5-5-5-5-3-3-3-0-0-0-2-2-2-5-5-5-2-2-5-5--|

     Riff 1
Eb:||---------------------------------------------------------------------|
Bb:||---------------------------------------------------------------------|
Gb:||---------------------------------------------------------------------|
Db:||--3-3-3-0-0-0-2-2-2-5-5-5-5-5-5-5-5-3-3-3-0-0-0-2-2-2-5-5-5-2-2-5-5--|
Ab:||--3-3-3-0-0-0-2-2-2-5-5-5-5-5-5-5-5-3-3-3-0-0-0-2-2-2-5-5-5-2-2-5-5--|
Db:||--3-3-3-0-0-0-2-2-2-5-5-5-5-5-5-5-5-3-3-3-0-0-0-2-2-2-5-5-5-2-2-5-5--|

     Riff 2/Pre-Chorus
Eb:||-------------------------------------------|-------------------|*
Bb:||-------------------------------------------|-------------------|
Gb:||-------------------------------------------|-------------------|
Db:||-------------------------------------------|--2*-2*--2*--5--3--|
Ab:||----2----3------------2-------------3-3----|--2*-2*--2*--5--3--|
Db:||--2----3---3-5-5-3--2---2-3-2-5-5-3-----3--|--2*-2*--2*--5--3--|
                                ^*

The second time through, the harmonics are just regular chords.
Note that the arrow shows where to substitute with the harmonics.

     Chorus
Eb:||------------------------------------------------------------------------|
Bb:||------------------------------------------------------------------------|
Gb:||-----4--2-------------------4--2------------------4--2------------------|
Db:||--2--2--0--0-0-0--0-0-0--2--2--0--0--0--0-0-0--2--2--0--0-0-0--0-0-0----|
Ab:||--2--2--0--0-0-0--0-0-0--2--2--0--0--0--0-0-0--2--2--0--0-0-0--0-0-0----|
Db:||--2--------0-0-0--0-0-0--2--------0--0--0-0-0--2--------0-0-0--0-0-0----|
               |------------|         |-----------|         |----------------|
                    P.M.                   P.M.                  P.M.

Let un-palmuted notes carry [ring] as long as possible.


     Chorus [Cont...]
Eb:||--------------------|
Bb:||--------------------|
Gb:||--------------------|
Db:||--7--7--7--5--5--5--|
Ab:||--5--5--5--5--9--5--|
Db:||--5--5--5--5--5--5--|


     Post Chorus
Eb:||------------------------------------|-------|
Bb:||------------------------------------|-------|
Gb:||------------------------------------|-------|
Db:||--5--5--5--5--5-5--4--4--4--4--4-4--|--/14--|
Ab:||--3--3--3--3--3-3--3--3--3--3--3-3--|-------|
Db:||------------------------------------|-------|

Play the Post Chorus twice, then the slide.


     Riff 3
Eb:||-------------------------------------|
Bb:||-------------------------------------|
Gb:||-------------------------------------|
Db:||-------------------------------------|
Ab:||--2------------2------------3--------|
Db:||----0-2-3-2-0----0-2-3-2-0----0-2-3--|

Start this riff off with light palm muting, then open.


     Riff 4
Eb:||-----------------|
Bb:||-----------------|
Gb:||-----------------|
Db:||--2-----3-----3--|
Ab:||--2--2--3--3--3--|
Db:||--2-----3-----3--|


     Outro [End]
Eb:||-----|
Bb:||-----|
Gb:||-----|
Db:||--2--|
Ab:||--2--|
Db:||--2--|

Track 11 - Devour:

Tuning: Db Ab Db Gb Bb Eb


Intro:

Fig. 1

e--------------------------------------------------------------------------|
b--------------------------------------------------------------------------|
g--------------------------------------------------------------------------|
d---10---9---7-9-10---10---7-9-10---------10---9---7-9-10---7---5----------|
a------------------------------------10-----------------------------6------|
d-9----9---9--------9----9--------10----9----9---9--------7---7---7---7-0--|

e--------------------------------------------------------------------------|
b--------------------------------------------------------------------------|
g--------------------------------------------------------------------------|
d---10---9---7-9-10---10---7-9-10---------10---9---7-9-10---7---5-------5--|
a------------------------------------10-----------------------------6------|
d-9----9---9--------9----9--------10----9----9---9--------7---7---7---7----|


Verse 1:

gtr. 1

e-----------------------------------------------------------------|
b-----------------------------------------------------------------|
g-----------------------------------------------------------------|
d---10---9---7-9-10---------------10---9---7-9-10---7---5---------|
a-----------------------------------------------------------6-----|
d-9----9---9--------------------9----9---9--------7---7---7---7-0-|

gtr. 2 w/ echo

e-----------------------------------------------------------------|
b-------------------------------12-------12b-12~~~~~~~~~~~~~~~~---|
g-----------------------------------------------------------------|
d-----------------------------------------------------------------|
a-----------------------------------------------------------------|
d-----------------------------------------------------------------|

gtr. 1

e-----------------------------------------------------------------|
b-----------------------------------------------------------------|
g-----------------------------------------------------------------|
d---10---9---7-9-10---------------10---9---7-9-10---7---5-------5-|
a-----------------------------------------------------------6-----|
d-9----9---9--------------------9----9---9--------7---7---7---7---|

gtr. 2 w/ echo

e-----------------------------------------------------------------|
b--------------12---12b--10-10-10-10------------------------------|
g------------------------------------11---------------------------|
d-----------------------------------------------------------------|
a-----------------------------------------------------------------|
d-----------------------------------------------------------------|

play Fig. 1

before chorus

e-----------------------------------------------------------------|
b-----------------------------------------------------------------|
g-----------------------------------------------------------------|
d-9--9--9----9----9--9-----9--9--9----9----9--9--0---2-2--2-2-2-2-|
a-9--9--9----9----9--9-----9--9--9----9----9--9--0---2-2--2-2-2-2-|
d-9--9--9----9----9--9-----9--9--9----9----9--9--0---2-2--2-2-2-2-|

Chorus:

gtr. 1

e----------------------------------------------------------------------------|
b----------------------------------------------------------------------------|
g-----------------------------------------------2---2--2-2-7---7-7-7-6-6-6-6-|
d-11----11--11----11---7---7--7--7--7--7--7--7--0---0--0-0-4---4-4-4-4-4-4-4-|
a--9-----9---7-----7---5---5--5--5--5--5--5--5--0---0--0-0-4---4-4-4-4-4-4-4-|
d--9-----9---7-----7---5---5--5--5--5--5--5--5--0---0--0-0-4---4-4-4-4-4-4-4-|

gtr. 2

e----------------------------------------------------------------------------|
b----------------------------------------------------------------------------|
g-6------6---6-----6-/11--11-11-11-11-11-11-11--2---2--2-2-7---7-7-7-6-6-6-6-|
d-x------x---x-----x---x---x--x--x--x--x--x--x--0---0--0-0-4---4-4-4-4-4-4-4-|
a-4------4---4-----4-/-9---9--9--9--9--9--9--9--0---0--0-0-4---4-4-4-4-4-4-4-|
d-----------------------------------------------0---0--0-0-4---4-4-4-4-4-4-4-|

1st Ending
gtr. 1

e----------------------------------------------------------------------------|
b----------------------------------------------------------------------------|
g-----------------------------------------------4----4---4-6-----------------|
d-11----11--11----11---5---5--5--5--5--5--5--5--2----2---2-4---4-4-4-4-4-4-4-|
a--9-----9---7-----7---5---5--5--5--5--5--5--5--2----2---2-4---4-4-4-4-4-4-4-|
d--9-----9---7-----7---5---5--5--5--5--5--5--5--2----2---2-4---4-4-4-4-4-4-4-|

gtr. 2

e----------------------------------------------------------------------------|
b----------------------------------------------------------------------------|
g-6------6---6-----6-/11--11-11-11--7--7--7--7--4----4---4-6-----------------|
d-x------x---x-----x---x---x--x--x--x--x--x--x--0----2---2-4---4-4-4-4-4-4-4-|
a-4------4---4-----4-/-9---9--9--9--5--5--5--5--0----2---2-4---4-4-4-4-4-4-4-|
d-----------------------------------------------0----2---2-4---4-4-4-4-4-4-4-|

2nd Ending

gtr. 1

e----------------------------------------------------------------------------|
b----------------------------------------------------------------------------|
g-----------------------------------------------4----4---4-6-----------------|
d-11----11--11----11---5---5--5--5--5--5--5--5--2----2---2-4---4-4-4-4-4-2-2-|
a--9-----9---7-----7---5---5--5--5--5--5--5--5--2----2---2-4---4-4-4-4-4-2-2-|
d--9-----9---7-----7---5---5--5--5--5--5--5--5--2----2---2-4---4-4-4-4-4-2-2-|

gtr. 2

e----------------------------------------------------------------------------|
b----------------------------------------------------------------------------|
g-6------6---6-----6-/11--11-11-11--7--7--7--7--4----4---4-6-----------------|
d-x------x---x-----x---x---x--x--x--x--x--x--x--0----2---2-4---4-4-4-4-4-2-2-|
a-4------4---4-----4-/-9---9--9--9--5--5--5--5--0----2---2-4---4-4-4-4-4-2-2-|
d-----------------------------------------------0----2---2-4---4-4-4-4-4-2-2-|

Interlude:

e--------------------------------------------------------------------------|
b--------------------------------------------------------------------------|
g--------------------------------------------------------------------------|
d---10---9---7-9-10---10---7-9-10---------10---9---7-9-10-7----------10----|
a------------------------------------10-------------------7----------10----|
d-9----9---9--------9----9--------10----9----9---9--------7----------10----|

Verse 2: Fig. 1 x2
before chorus
chorus

before bridge

e-----------------------------------------------------------------------|
b-----------------------------------------------------------------------|
g-----------------------------------------------------------------------|
d-----------------------------------------------------------------------|
a-----------------------------------------------------------------------|
d-9---9-9---9-9-9---9-9-9-9-10-10----9---9-9---9-9-9---9-9-9-9-10-10----|

Bridge: x4

e-----------------------------------------------------------------------|
b-----------------------------------------------------------------------|
g-----------------------------------------------------------------------|
d-9---9-9---9-9-9---9-9-9-9-10-10----9---9-9---9-9-9---9-9-9-9-10-10----|
a-9---9-9---9-9-9---9-9-9-9-10-10----9---9-9---9-9-9---9-9-9-9-10-10----|
d-9---9-9---9-9-9---9-9-9-9-10-10----9---9-9---9-9-9---9-9-9-9-10-10----|

Outro:

x4
e---------------------------------------|
b---------------------------------------|
g---------------------------------------|
d---10---9---7-9-10---10---7-9-10-------|
a------------------------------------10-|
d-9----9---9--------9----9--------10----|

Track 12 - Darkness:

Tuning: Eb Ab Db Gb Bb Eb


Intro:

Fig. 1a

e-----19--17------14--14-----15-------------------|
b-------------------------------------------------|
g-------------------------------------------------|
d-------------------------------------------------|
a-------------------------------------------------|
e-------------------------------------------------|

Fig. 1

e-------------------------------------------------|
b-------------------------------------------------|
g----------------------------------------0-----0--|
d-------4-----4--0-----0--------4-----4-----------|
a----2-----2--------2--------2-----2--------2-----|
e-0-----------------------3-----------------------|

Fig. 1a (cont)

e-----19--17----14--14------15--------------------|
b---------------------------------15--------------|
g-------------------------------------------------|
d-------------------------------------------------|
a-------------------------------------------------|
e-------------------------------------------------|

Fig. 1 (cont)

e-------------------------------------------------|
b-------------------------------------------------|
g----------------------------------------0--------|
d-------4-----4--0-----0--------4-----4--------0--|
a----2-----2--------2--------2-----2--------2-----|
e-0-----------------------3-----------------------|

Verses: Fig. 1 and Fig. 1a x2

Chorus:

gtr. 1

e---------0----------------0--------------0-----------------0-------|
b-----------3----------------3--------------3-----------------3-----|
g-------0-----0----------------0--------0-----0-----------------0---|
d---2-2-----------------------------2-2-----------------------------|
a-3-------------2----0------------3-------------2----0--------------|
e----------------------0-------------------------------0------------|

gtr. 2

e-------------------------------------------------------------------|
b---------0-------------------------------0-------------------------|
g-------0-----2-0----2h4-------0--------0-----2-0----2--------------|
d---2/5-----------------------------2/5----------------2------------|
a-3-------------------------------3---------------------------------|
e-------------------------------------------------------------------|

gtr. 1

e---------0----------------0--------------0----------2-2---2-2--2-2-|
b-----------3----------------3--------------3---3----3-3---3-3--3-3-|
g-------0-----0----------------0--------0-----0-0----2-2---2-2--2-2-|
d---2-2-----------------------------2-2---------2----0-0-0---0--0-0-|
a-3-------------2----0------------3-------------3-------------------|
e----------------------0--------------------------------------------|

gtr. 2

e-------------------------------------------------------------------|
b---------0---------------------------------------------------------|
g-------0-----2-0----2h4-------0--0---------------------------------|
d---2/5-------------------------------------------------------------|
a-3-----------------------------------------------------------------|
e-------------------------------------------------------------------|

Bridge: x4

gtr. 1

e-0----0--0-0--0----0-0-0-0----0-0-0--0-----0-0-0--0---0-0--|
b-0----0--0-0--0----0-0-0-0----0-0-0--0-----0-0-0--0---0-0--|
g-0----0--2-2--2----2-2-2-2----2-2-2--2-----2-2-2--2---2-2--|
d-2----2--3-3--3----3-3-3-3----3-3-3--3-----3-3-3--3---3-3--|
a-2----2--2-2--2----2-2-2-2----2-2-2--2-----2-2-2--2---2-2--|
e-0----0----------------------------------------------------|

gtr. 2

e-----------------------------------------------------------|
b-----------------------------------------------------------|
g-9~~~~~~~~~~~~~~~~~~~~~~~~~~~~-----------------------------|
d-----------------------------------------------------------|
a-----------------------------------------------------------|
e-----------------------------------------------------------|

That's it bassicly hope you like it and enjoy playing it, Please rate me!
comments
We did not receive enough feedback on this tab! Please rate:
print report bad tab
1 2 3 4 5
3 comments total.
0 reply
ChrisW-Ness2003 wrote on May 9 2006, 04:36 pm

Looks like it's straight out the tab book.. but good none the less! lol.

0 reply
Polishboy656 wrote on April 18 2007, 09:39 pm

who cares... i rather let some loser buy the book and give all the tabs away than go to the music store w/ my lazy ass and buy it! (lol)

0 reply
jason_sayers wrote on January 20 2008, 04:55 pm

Actually i tabbed it all by ear.

And the books are not alway's accurate.

I want to post or [tab]
guest
You may want to rate the tab now too:
select rating
Please do not post tabs as comments. Select "correction" instead!