Oops, an error
Loading. Please wait.

Believe Tab

ver5
ver5

Album

Whole song

Interactive

More versions @911Tabs.com
757 views 1 this week
no commentswrite comment
1 2 3 4 5
excellent!
x 2
Autoscroll
+/-
esc
set tempo
stop
Contributor
NEW! There's an official Ultimate Guitar app which is ideal
for learning songs when you're away from computer. Get the app
WARNING: You are trying to view
                                    content from Ultimate-Guitar.com
                                    in an unauthorized application,
                                    which is prohibited.

                                    Please use an official Ultimate
                                    Guitar Tabs application for iPhone,
                                    iPad or Android to access legitimate
                                    chords, guitar, bass, and drum tabs
                                    from Ultimate-Guitar.com database.

                                    Type "ultimate guitar tabs" in Apple
                                    App Store's or Android Market's
                                    search to find the application.
Song: Awaken
Band: Disturbed
Album: Believe
Tuning: Drop D half-step down (Db Ab Db Gb Bb eb, low to high)
Transcribed and written by: JustinLH4rock

INTRO: x2
|--------------------------------------------|
|--------------------------------------------|
|--------------------------------------------|
|-7-7--7--7-10-10--10--10-10--10-------------|
|-5-5--5--5--5--5---5---8--8---8--13--13--12-|
|-5-5--5--5--5--5---5---8--8---8--12--12--12-|

|--------------------------------------------|
|--------------------------------------------|
|--------------------------------------------|
|-7-7--7--7-10-10--10--10-10--10-------------|
|-5-5--5--5--5--5---5---8--8---8-------------|
|-5-5--5--5--5--5---5---8--8---8-0-0-0-0-0-0-|
PM                               * * * * * *

VERSE:
|----------------------------------------------|
|----------------------------------------------|
|----------------------------------------------|
|-----------------------8-8--8---8-------------|
|-5-5--5--5--5--5---5---8-8--8---8--13--13--12-|
|-5-5--5--5--5--5---5---8-8--8---8--12--12--12-|
PM********************************************---\
                                                  | x2
|----------------------------------------------|-/
|----------------------------------------------|
|----------------------------------------------|
|-----------------------8-8--8---8-------------|
|-5-5--5--5--5--5---5---8-8--8---8-------------|
|-5-5--5--5--5--5---5---8-8--8---8-0-0-0-0-0-0-|
PM********************************************

|----------------------------------------------|
|----------------------------------------------|
|----------------------------------------------|
|-7-7--7----------------8-8--8---8-------------|
|-5-5--5--5--5--5---5---8-8--8---8--13--13--12-|
|-5-5--5--5--5--5---5---8-8--8---8--12--12--12-|-\
PM        ************************                |
                                                  | x2
|----------------------------------------------|-/
|----------------------------------------------|
|----------------------------------------------|
|-7-7--7----------------8-8--8---8-------------|
|-5-5--5--5--5--5---5---8-8--8---8-------------|
|-5-5--5--5--5--5---5---8-8--8---8-0-0-0-0-0-0-|
PM        ************************************

CHORUS:                               1.3.
|-----------------------------------------|
|-----------------------------------------|
|-----------------------------------------|
|--------------------3---3-3-3------------|
|-8---8-8-8-12-12-8--3---3-3-3/6---8---6--|
|-8---8-8-8-8--8--8--3---3-3-3/6---6---6--|
                                        2.
|-----------------------------------------|
|-----------------------------------------|
|-----------------------------------------|
|-----8-----8-------------8-----8---------|
|-\5--8--5--8--1--1---/5--8--5--8--1--1---|
|-\5-----5-----1--1---/5-----5-----1--1---|

|----------------------------------|------------------------------|
|----------------------------------|------------------------------|
|----------------------------------|------------------------------|
|----------------------------------|------------------------------|
|-5-555/10-101010-0-000-6-6-6------|-5-555-10-121010-0-000-6-6-0--|
|-5-555/10-101010-0-000-6-6-6------|-5-555-10-101010-0-000-6-6-0--|

|----------------------------------|------------------------------|
|----------------------------------|------------------------------|
|----------------------------------|------------------------------|
|---------------------------8-8-8--|------------------------------|
|-5-555/10-101010-13-131313-8-8-8--|-5-555-10-121010-0-000-6-6-0--|
|-5-555/10-101010-13-131313-8-8-8--|-5-555-10-101010-0-000-6-6-0--|

|------------------|------------------|
|------------------|------------------|
|------------------|------------------|
|------------------|------------------|
|-6--6--6--6--6--6-|-6--6--6--6--6--6-|
|-6--6--6--6--6--6-|-6--6--6--6--6--6-|
PM*  *  *  *  *  '

BRIDGE: x2
|--------------------------------------------|
|--------------------------------------------|
|--------------------------------------------|
|-7-7--7--7-10-10--10--10-10--10-------------|
|-5-5--5--5--5--5---5---8--8---8--13--13--12-|
|-5-5--5--5--5--5---5---8--8---8--12--12--12-|

|--------------------------------------------|
|--------------------------------------------|
|--------------------------------------------|
|-7-7--7--7-10-10--10--10-10--10-------------|
|-5-5--5--5--5--5---5---8--8---8-------------|
|-5-5--5--5--5--5---5---8--8---8-0-0-0-0-0-0-|
PM                               * * * * * *

VERSE:
|----------------------------------------------|
|----------------------------------------------|
|----------------------------------------------|
|-----------------------8-8--8---8-------------|
|-5-5--5--5--5--5---5---8-8--8---8--13--13--12-|
|-5-5--5--5--5--5---5---8-8--8---8--12--12--12-|
PM********************************************---\
                                                  | x2
|----------------------------------------------|-/
|----------------------------------------------|
|----------------------------------------------|
|-----------------------8-8--8---8-------------|
|-5-5--5--5--5--5---5---8-8--8---8-------------|
|-5-5--5--5--5--5---5---8-8--8---8-0-0-0-0-0-0-|
PM********************************************

|----------------------------------------------|
|----------------------------------------------|
|----------------------------------------------|
|-7-7--7----------------8-8--8---8-------------|
|-5-5--5--5--5--5---5---8-8--8---8--13--13--12-|
|-5-5--5--5--5--5---5---8-8--8---8--12--12--12-|-\
PM        ************************                |
                                                  | x2
|----------------------------------------------|-/
|----------------------------------------------|
|----------------------------------------------|
|-7-7--7----------------8-8--8---8-------------|
|-5-5--5--5--5--5---5---8-8--8---8-------------|
|-5-5--5--5--5--5---5---8-8--8---8-0-0-0-0-0-0-|
PM        ************************************

CHORUS:                               1.3.
|-----------------------------------------|
|-----------------------------------------|
|-----------------------------------------|
|--------------------3---3-3-3------------|
|-8---8-8-8-12-12-8--3---3-3-3/6---8---6--|
|-8---8-8-8-8--8--8--3---3-3-3/6---6---6--|
                                        2.
|-----------------------------------------|
|-----------------------------------------|
|-----------------------------------------|
|-----8-----8-------------8-----8---------|
|-\5--8--5--8--1--1---/5--8--5--8--1--1---|
|-\5-----5-----1--1---/5-----5-----1--1---|

|----------------------------------|------------------------------|
|----------------------------------|------------------------------|
|----------------------------------|------------------------------|
|----------------------------------|------------------------------|
|-5-555/10-101010-0-000-6-6-6------|-5-555-10-121010-0-000-6-6-0--|
|-5-555/10-101010-0-000-6-6-6------|-5-555-10-101010-0-000-6-6-0--|

|----------------------------------|------------------------------|
|----------------------------------|------------------------------|
|----------------------------------|------------------------------|
|---------------------------8-8-8--|------------------------------|
|-5-555/10-101010-13-131313-8-8-8--|-5-555-10-121010-0-000-6-6-0--|
|-5-555/10-101010-13-131313-8-8-8--|-5-555-10-101010-0-000-6-6-0--|

|------------------|------------------|  FILL:
|------------------|------------------|  |------|------|------|------|
|------------------|------------------|  |------|------|------|------|
|------------------|------------------|  |------|------|------|------|
|-6--6--6--6--6--6-|-6--6--6--6--6--6-|  |-0~---|------|------|------|
|-6--6--6--6--6--6-|-6--6--6--6--6--6-|  |-0~---|------|------|------|
PM*  *  *  *  *  '                       |-0~---|------|------|------|

INTERLUDE: (an extra guitar comes in for this, same tuning)

INTERLUDE PART 1 x2

  Riff 1
      Guitar 1
     |-----------------------------------|
     |-----------------------------------|
     |-----------------------------------|
     |-----------------------------------|
     |---------8p7-----7p5-----5p3p0h5/8-|
     |-0---0------0-0------0-0-----------|
      Guitar 2
     |-----------------------------------|
     |-----------------------------------|
     |-----------------------------------|
     |-----------------------------------|
     |-------12p10----10p8-----8p6\5-----|
     |-0---0------0-0------0-0------5/10-|

  Riff 2
      Guitar 1
     |-----------------------------------|
     |-----------------------------------|
     |-----------------------------------|
     |--------------------------------8--|
     |---------8p7-----7p5------------8--|
     |-0---0------0-0------0-0-8---------|
      Guitar 2
     |-----------------------------------|
     |-----------------------------------|
     |-----------------------------------|
     |--------------------------------8--|
     |-------12p10----10p8-----8------8--|
     |-0---0------0-0------0-0-----------|

INTERLUDE PART 2 x4

  Riff 1
      Guitar 1
     |----------------------------------------------|
     |----------------------------------------------|
     |----------------------------------------------|
     |----------------------------------------------|
     |-------------8p7---------7p5---------5p3p0h/8-|
     |-0-0-0-0-0-0-----0-0-0-0-----0-0-0-0----------|
     PM* * * * * *     * * * *     * * * *
      Guitar 2 (clean)
     |----------------------------------------------|
     |-----6-5-6-5-6p5--------------6-5-6-5-6p5-----|
     |-7-----------------7------7-----------------7-|
     |----------------------------------------------|
     |----------------------------------------------|
     |----------------------------------------------|

  Riff 2
      Guitar 1
     |---------------------------------------------|
     |---------------------------------------------|
     |---------------------------------------------|
     |------------------------------------------10-|
     |-------------8p7---------7p5---------8-----8-|
     |-0-0-0-0-0-0-----0-0-0-0-----0-0-0-0-8-----8-|
     PM* * * * * *     * * * *     * * * *
      Guitar 2 (clean)
     |----------------------------------------------|
     |-----6-5-6-5-6p5--------------6-5-6-5-6p5-----|
     |-7-----------------7------7-----------------7-|
     |----------------------------------------------|
     |----------------------------------------------|
     |----------------------------------------------|

INTERLUDE PART 3 x2

  Riff 1
      Guitar 1
     |---------------------------------------------------|
     |---------------------------------------------------|
     |---------------------------------------------------|
     |-7-7--7--7-10-10--10--10-10-10--10--10-------------|
     |-5-5--5--5--5--5---5---5--7--7---7---7-13--13--12--|
     |-5-5--5--5--5--5---5---5--7--7---7---7-12--12--12--|
      Guitar 3 (distortion)
     |---------------------------------------------------|
     |---------------------------------------------------|
     |---------------------------------------------------|
     |-7~---------\3~-----------7~-----------\3~---------|
     |---------------------------------------------------|
     |---------------------------------------------------|

  Riff 2
      Guitar 1
     |---------------------------------------------------|
     |---------------------------------------------------|
     |---------------------------------------------------|
     |-7-7--7--7-10-10--10--10-10-10--10--10--0---0---0--|
     |-5-5--5--5--5--5---5---5--7--7---7---7--0---0---0--|
     |-5-5--5--5--5--5---5---5--7--7---7---7--0---0---0--|
      Guitar 3 (distortion)
     |---------------------------------------------------|
     |---------------------------------------------------|
     |---------------------------------------------------|
     |-7~---------\3~-----------7~----------[-8~-]-------| [leave out on repeat]
     |---------------------------------------------------|
     |---------------------------------------------------|



CHORUS:                               1.3.
|-----------------------------------------|
|-----------------------------------------|
|-----------------------------------------|
|--------------------3---3-3-3------------|
|-8---8-8-8-12-12-8--3---3-3-3/6---8---6--|
|-8---8-8-8-8--8--8--3---3-3-3/6---6---6--|
                                        2.
|-----------------------------------------|
|-----------------------------------------|
|-----------------------------------------|
|-----8-----8-------------8-----8---------|
|-\5--8--5--8--1--1---/5--8--5--8--1--1---|
|-\5-----5-----1--1---/5-----5-----1--1---|

|----------------------------------|
|----------------------------------|
|----------------------------------|
|----------------------------------|
|-5-555/10-101010-13-131313-x-x-x--|
|-5-555/10-101010-13-131313-x-x-x--|

|------------------------------|----------------------------------|
|------------------------------|----------------------------------|
|------------------------------|----------------------------------|
|-----------------0-000--------|---------------------------8-8-8--|
|-5-555-10-121010-0-000-6-6-0--|-5-555/10-101010-13-131313-8-8-8--|
|-5-555-10-101010-0-000-6-6-0--|-5-555/10-101010-13-131313-8-8-8--|

|------------------------------|----------------------------------|
|------------------------------|----------------------------------|
|------------------------------|----------------------------------|
|-----------------0-000--------|---------------------------8-8-8--|
|-5-555-10-121010-0-000-6-6-0--|-5-555/10-101010-13-131313-8-8-8--|
|-5-555-10-101010-0-000-6-6-0--|-5-555/10-101010-13-131313-8-8-8--|

OUTRO:
|--------------------------------------|   |-------------|-------------|----|----|
|--------------------------------------|   |-------------|-------------|----|----|
|--------------------------------------|   |-------------|-------------|----|----|
|------------------------------3--3--1-|x3 |-------------|-------------|----|----|
|-5-5-----10-10--------1-1-----3--3--1-|   |-6-6-6-6-6-6-|-6-6-6-6-6-6-|-5~-|(5)-|
|-5-5-555-10-10-101010-1-1-111-3--3--1-|   |-6-6-6-6-6-6-|-6-6-6-6-6-6-|-5~-|(5)-|
PM    ***       ******     ***               * * * * * '

Again, this is one hundred, that's 100, percent, %, correct.
comments
We did not receive enough feedback on this tab! Please rate:
print report bad tab
1 2 3 4 5
I want to post or [tab]
guest
You may want to rate the tab now too:
select rating
Please do not post tabs as comments. Select "correction" instead!