Oops, an error
Loading. Please wait.

Bound Tab

ver3
ver3

Whole song

More versions @911Tabs.com
3,336 views 1 this week
no commentswrite comment
1 2 3 4 5
excellent!
x 5
Autoscroll
+/-
esc
set tempo
stop
Contributor
WARNING: You are trying to view
                                    content from Ultimate-Guitar.com
                                    in an unauthorized application,
                                    which is prohibited.

                                    Please use an official Ultimate
                                    Guitar Tabs application for iPhone,
                                    iPad or Android to access legitimate
                                    chords, guitar, bass, and drum tabs
                                    from Ultimate-Guitar.com database.

                                    Type "ultimate guitar tabs" in Apple
                                    App Store's or Android Market's
                                    search to find the application.
Band- Disturbed
Song- Bound

Drop Db:
Db Ab Db Gb Bb Eb

Intro: w/ wah

e-----------------------------------------------------------------|
b-----------------------------------------------------------------|
g-----------------------------------------------------------------|
d-----------------------------------------------------------------|
a-----------------------------------------------------------------|
d-3-3-3-0-0-0-2-2-2-5-5-5-5-5-5-5-3-3-3-0-0-0-2-2-2-5-5-5-2-2-5-5-|

e-----------------------------------------------------------------|
b-----------------------------------------------------------------|
g-----------------------------------------------------------------|
d-----------------------------------------------------------------|
a-----------------------------------------------------------------|
d-3-3-3-0-0-0-2-2-2-5-5-5-5-5-5-5-3-3-3-0-0-0-2-2-2-5-5-5-5-------|

x2
e-----------------------------------------------------------------|
b-----------------------------------------------------------------|
g-----------------------------------------------------------------|
d-----------------------------------------------------------------|
a-3-3-3---------------------------3-3-3---------------------------|
d-3-3-3-0-0-0-2-2-2-5-5-5-5-5-5-5-3-3-3-0-0-0-2-2-2-5-5-5-2-2-5-5-|

Interlude: x2

gtr. 1

e-----------------------------------------------------------------|
b-----------------------------------------------------------------|
g-----------------------------------------------------------------|
d------4--------5---5-----------------4------------------5-5------|
a-2----2----3---3---3--5-5--3----2----2----0-3-0-5-5--3--3-3--3---|
d-2---------3----------5-5--3----2---------0-3-0-5-5--3-------3---|

gtr. w/ wah 2nd time

e-----------------------------------------------------------------|
b-----------------------------------------------------------------|
g------4--------5---------------------4---------------------------|
d-2---------3--------------------2--------------------------------|
a-----------------------------------------------------------------|
d-----------------------------------------------------------------|

gtr. 1

e-----------------------------------------------------------------|
b-----------------------------------------------------------------|
g-----------------------------------------------------------------|
d------4--------5---5-----------------4---------------------------|
a-2----2----3---3---3--5-5--3----2----2----0-3-0---0---0--5-5--3--|
d-2---------3----------5-5--3----2---------0-3-0---0---0--5-5--3--|

gtr. w/ wah 2nd time

e-----------------------------------------------------------------|
b-----------------------------------------------------------------|
g------4--------5-------------------------------------------------|
d-2---------3-----------------------------------------------------|
a-----------------------------------------------------------------|
d-----------------------------------------------------------------|

Verse: pm

e-----------------------------------------------------------------|
b-----------------------------------------------------------------|
g-----------------------------------------------------------------|
d-----------------------------------------------------------------|
a------2---------3--------------------2------------------3-3------|
d-2---------3----------0-5-5--3--2--------2-3-0--5-5--3-------3---|

e-----------------------------------------------------------------|
b-----------------------------------------------------------------|
g-----------------------------------------------------------------|
d-----------------------------------------------------------------|
a------2---------3--------------------2-----------------<3b>------|
d-2---------3----------0-5-5--3--2--------2-3-0---0---0-----------|

e-----------------------------------------------------------------|
b-----------------------------------------------------------------|
g-----------------------------------------------------------------|
d-----------------------------------------------------------------|
a------2---------3--------------------2------------------3-3------|
d-2---------3----------0-5-5--3--2--------2-3-0--5-5--3-------3---|

e-----------------------------------------------------------------|
b-----------------------------------------------------------------|
g-----------------------------------------------------------------|
d-----------------------------------------------------------------|
a------2---------3--------------------2-------0---0---0--5---3----|
d-2---------3----------0-5-5--3--2--------0-3-0---0---0--5---3----|

Chorus: x2

e-----------------------------------------------------------|
b-----------------------------------------------------------|
g-----------------------------------------------------------|
d---/9--9--7---------------------/9--9--7-------------------|
a-2-/7--7--5-------------------2-/7--7--5-------------------|
d-2-------------0-0-0---0-0-0--2-------------0-0-0---0-0-0--|

1st ending:

e-----------------------------------------------------------|
b-----------------------------------------------------------|
g-----------------------------------------------------------|
d---/9--9--7-------------------7----7----7--7--------7---9--|
a-2-/7--7--5-------------------5----5----5--5----5---5---9--|
d-2-------------0-0-0---0-0-0--5----5----5--5----5---5---9--|

2nd ending:

e-----------------------------------------------------------|
b-----------------------------------------------------------|
g-----------------------------------------------------------|
d---/9--9--7-------------------7----7----7--7--------7---7--|
a-2-/7--7--5-------------------5----5----5--5----5---5---5--|
d-2-------------0-0-0---0-0-0--5----5----5--5----5---5---5--|

after 1st chorus

e------------------------------------------------------|
b------------------------------------------------------|
g------------------------------------------------------|
d-5----5----5----5----5--5--4----4----4----4----4--4---|
a-3----3----3----3----3--3--3----3----3----3----3--3---|
d------------------------------------------------------|

Interlude:

e-----------------------------------------------------------------|
b-----------------------------------------------------------------|
g-----------------------------------------------------------------|
d-----------------------------------------------------------------|
a---------------------------------3-3-3---------------------------|
d-3-3-3-0-0-0-2-2-2-5-5-5-5-5-5-5-3-3-3-0-0-0-2-2-2-5-5-5-2-2-5-5-|

e-----------------------------------------------------------------|
b-----------------------------------------------------------------|
g-----------------------------------------------------------------|
d-----------------------------------------------------------------|
a-3-3-3---------------------------3-3-3---------------------------|
d-3-3-3-0-0-0-2-2-2-5-5-5-5-5-5-5-3-3-3-0-0-0-2-2-2-5-5-5-2-2-5-5-|

after 2nd chorus:

x2
e------------------------------------------------------|
b------------------------------------------------------|
g------------------------------------------------------|
d-5----5----5----5----5--5--4----4----4----4----4--4---|
a-3----3----3----3----3--3--3----3----3----3----3--3---|
d------------------------------------------------------|

2 gtrs.

e------------------------------------------------------|
b------------------------------------------------------|
g-/9~~~~~~~~~~~~~~~~~----------------------------------|
d------------------------------------------------------|
a-/7~~~~~~~~~~~~~~~~~----------------------------------|
d------------------------------------------------------|

Bridge: x8 (x4 w/ pm)

e-----------------------------------------------------------------|
b-----------------------------------------------------------------|
g-----------------------------------------------------------------|
d-----------------------------------------------------------------|
a-2-----------2-----------3-------2-----------2-----------3-------|
d---3-2-0-2-3---3-2-0-2-3---5-3-5---3-2-0-2-3---3-2-0-2-3---5-3-5-|

keyboard arr. for gtr pm

e-----------------------------------------------------------------|
b-----------------------------------------------------------------|
g-9-9-9-9-9-9-9-----9-9-9-9-9-9-9-9-9-9-9-9-9-9-----9-9-9-9-9-9-9-|
d-----------------------------------------------------------------|
a-----------------------------------------------------------------|
d-----------------------------------------------------------------|

before 3rd chorus

e--------------------------        -------------------------------|
b--------------------------        -------------------------------|
g--------------------------        -------------------------------|
d------4---------4---------        ------4------------------------|
a-2----2----3----2--3--3---   x3   -2----2----3-------------------|
d-2---------3-------3--3---        -2---------3-------------------|
comments
print report bad tab
I want to post or [tab]
guest
You may want to rate the tab now too:
select rating
Please do not post tabs as comments. Select "correction" instead!