Oops, an error
Loading. Please wait.

Darkness Tab

ver4
ver4

Whole song

Interactive

More versions @911Tabs.com
8,333 views 1 this week
6 commentsread comments
1 2 3 4 5
excellent!
x 8
Autoscroll
+/-
esc
set tempo
stop
Difficulty
intermediate
WARNING: You are trying to view
                                    content from Ultimate-Guitar.com
                                    in an unauthorized application,
                                    which is prohibited.

                                    Please use an official Ultimate
                                    Guitar Tabs application for iPhone,
                                    iPad or Android to access legitimate
                                    chords, guitar, bass, and drum tabs
                                    from Ultimate-Guitar.com database.

                                    Type "ultimate guitar tabs" in Apple
                                    App Store's or Android Market's
                                    search to find the application.
Tuning: Standard

All Acoustic

Intro:
e-------------------------------------------------|
b-------------------------------------------------|
g----------------------------------------0-----0--|
d-------4-----4--0-----0--------4-----4-----------|
a----2-----2--------2--------2-----2--------2-----|
E-0-----------------------3-----------------------|

e-------------------------------------------------|
b-------------------------------------------------|
g----------------------------------------0--------|
d-------4-----4--0-----0--------4-----4--------0--|
a----2-----2--------2--------2-----2--------2-----|
E-0-----------------------3-----------------------|
Play both parts all the way through twice then he starts singing and the verse goes like this…

Verse:
e-------------------------------------------------|
b-------------------------------------------------|
g----------------------------------------0-----0--|
d-------4-----4--0-----0--------4-----4-----------|
a----2-----2--------2--------2-----2--------2-----|
E-0-----------------------3-----------------------|
Play that once then this…
e-------------------------------------------------|
b-------------------------------------------------|
g----------------------------------------0--------|
d-------4-----4--0-----0--------4-----4--------0--|
a----2-----2--------2--------2-----2--------2-----|
E-0-----------------------3-----------------------|
Play this part three times after the first part then the chorus…

Chorus:
e---------0----------------0--------------0-----------------0-------|
b-----------3----------------3--------------3-----------------3-----|
g-------0-----0----------------0--------0-----0-----------------0---|
d---2-2-----------------------------2-2-----------------------------|
a-3-------------2----0------------3-------------2----0--------------|
E----------------------0-------------------------------0------------|

e---------0----------------0--------------0----------2-2---2-2--2-2-|
b-----------3----------------3--------------3---3----3-3---3-3--3-3-|
g-------0-----0----------------0--------0-----0-0----2-2---2-2--2-2-|
d---2-2-----------------------------2-2---------2----0-0-0---0--0-0-|
a-3-------------2----0------------3-------------3-------------------|
E----------------------0--------------------------------------------|
I hear a second guitar in there somewhere but this is all I felt like tabbing so you can 
to it and figure it out for yourselves.
After the chorus you play the intro all over again…

Verse 2:
e-------------------------------------------------|
b-------------------------------------------------|
g----------------------------------------0-----0--|
d-------4-----4--0-----0--------4-----4-----------|
a----2-----2--------2--------2-----2--------2-----|
E-0-----------------------3-----------------------|

e-------------------------------------------------|
b-------------------------------------------------|
g----------------------------------------0--------|
d-------4-----4--0-----0--------4-----4--------0--|
a----2-----2--------2--------2-----2--------2-----|
E-0-----------------------3-----------------------|
Like I said play this whole thing twice just like the intro. After that we move into 
chorus...

Chorus 2:
e---------0----------------0--------------0-----------------0-------|
b-----------3----------------3--------------3-----------------3-----|
g-------0-----0----------------0--------0-----0-----------------0---|
d---2-2-----------------------------2-2-----------------------------|
a-3-------------2----0------------3-------------2----0--------------|
E----------------------0-------------------------------0------------|

e---------0----------------0--------------0----------2-2---2-2--2-2-|
b-----------3----------------3--------------3---3----3-3---3-3--3-3-|
g-------0-----0----------------0--------0-----0-0----2-2---2-2--2-2-|
d---2-2-----------------------------2-2---------2----0-0-0---0--0-0-|
a-3-------------2----0------------3-------------3-------------------|
E----------------------0--------------------------------------------|
After that there is a bridge. The part where he says “On my own…” for about twenty 
play this during that time about four times.

Bridge:
e-0----0--0-0--0----0-0-0-0----0-0-0--0-----0-0-0--0---0-0--|
b-0----0--0-0--0----0-0-0-0----0-0-0--0-----0-0-0--0---0-0--|
g-0----0--2-2--2----2-2-2-2----2-2-2--2-----2-2-2--2---2-2--|
d-2----2--3-3--3----3-3-3-3----3-3-3--3-----3-3-3--3---3-3--|
a-2----2--2-2--2----2-2-2-2----2-2-2--2-----2-2-2--2---2-2--|
E-0----0----------------------------------------------------|
There is a verse after the bridge that is different from all the others in that it 
one more time…

Verse 3:
e-------------------------------------------------|
b-------------------------------------------------|
g----------------------------------------0-----0--|
d-------4-----4--0-----0--------4-----4-----------|
a----2-----2--------2--------2-----2--------2-----|
E-0-----------------------3-----------------------|

e-------------------------------------------------|
b-------------------------------------------------|
g----------------------------------------0--------|
d-------4-----4--0-----0--------4-----4--------0--|
a----2-----2--------2--------2-----2--------2-----|
E-0-----------------------3-----------------------|
Play the whole thing all the way through three times this time, then he repeats the same 
again…

Chorus 3:
e---------0----------------0--------------0-----------------0-------|
b-----------3----------------3--------------3-----------------3-----|
g-------0-----0----------------0--------0-----0-----------------0---|
d---2-2-----------------------------2-2-----------------------------|
a-3-------------2----0------------3-------------2----0--------------|
E----------------------0-------------------------------0------------|

e---------0----------------0--------------0----------2-2---2-2--2-2-|
b-----------3----------------3--------------3---3----3-3---3-3--3-3-|
g-------0-----0----------------0--------0-----0-0----2-2---2-2--2-2-|
d---2-2-----------------------------2-2---------2----0-0-0---0--0-0-|
a-3-------------2----0------------3-------------3-------------------|
E----------------------0--------------------------------------------|
Then after the final chorus above you play the intro for the outro…

Outro:
e-------------------------------------------------|
b-------------------------------------------------|
g----------------------------------------0-----0--|
d-------4-----4--0-----0--------4-----4-----------|
a----2-----2--------2--------2-----2--------2-----|
E-0-----------------------3-----------------------|

e-------------------------------------------------|
b-------------------------------------------------|
g----------------------------------------0--------|
d-------4-----4--0-----0--------4-----4--------0--|
a----2-----2--------2--------2-----2--------2-----|
E-0-----------------------3-----------------------|
Play this through twice like the intro and let the last note ring after your done. And 
the song!!

An awesome song. Very relaxing, fun, and easy to play. Hope you like the tab. I don’t 
an e-mail address, sorry… But just rate it and I’ll be able to see how good it is.
comments
print report bad tab
6 comments total. Showing first comments.
0 reply
CrosseGod18 wrote on December 13 2005, 07:12 am

This is my tab, just registered the other day, leave some comments.

+1 reply
Daisuke wrote on March 8 2006, 01:40 pm

Nice tab.. :)

+1 reply
Xosa wrote on April 15 2006, 09:43 pm

Good tab, thanks!

I want to post or [tab]
guest
You may want to rate the tab now too:
select rating
Please do not post tabs as comments. Select "correction" instead!