Oops, an error
Loading. Please wait.

Decadence Tab

ver2
ver2

Whole song

Interactive

More versions @911Tabs.com
15,087 views 87 this week
no commentswrite comment
1 2 3 4 5
excellent!
x 9
Autoscroll
+/-
esc
set tempo
stop
Contributor
Difficulty
Tuning
intermediate
C# G# C# F# A# D#
NEW! There's an official Ultimate Guitar app which is ideal
for learning songs when you're away from computer. Get the app
WARNING: You are trying to view
                                    content from Ultimate-Guitar.com
                                    in an unauthorized application,
                                    which is prohibited.

                                    Please use an official Ultimate
                                    Guitar Tabs application for iPhone,
                                    iPad or Android to access legitimate
                                    chords, guitar, bass, and drum tabs
                                    from Ultimate-Guitar.com database.

                                    Type "ultimate guitar tabs" in Apple
                                    App Store's or Android Market's
                                    search to find the application.
Decadence
Disturbed
Ten Thousand Fists (2005)

Decadence:  written by David Draiman, Dan Donegan, John Moyer, Mike Wengren

GTR I - Drop Db Tuning (eb,Bb,Gb,Db,Ab,Db)
GTR II - Drop Db Tuning (eb,Bb,Gb,Db,Ab,Db)

Intro

   GTR I (with wah)
eb|-------------------------------------------------|
Bb|-------------------------------------------------|
Gb|-------------------------------------------------|
Db|-------------------------------------------------|
Ab|--------------------5-----------3-----------2----|
Db|--3--2--0--2--0--2-----2--0--2-----2--0--2-----0-|

   GTR I
eb|-------------------------------------------------|
Bb|-------------------------------------------------|
Gb|-------------------------------------------------|
Db|-------------------------------------------------|
Ab|--------------------5-----------3-----------5----|
Db|--3--2--0--2--0--2-----2--0--2-----2--0--2-----0-|

   GTR I
eb|-------------------------------------------------|
Bb|-------------------------------------------------|
Gb|-------------------------------------------------|
Db|-------------------------------------------------|
Ab|--------------------5-----------3-----------2----|
Db|--3--2--0--2--0--2-----2--0--2-----2--0--2-----0-|

   GTR I
eb|-------------------------------------------------|
Bb|-------------------------------------------------|
Gb|-------------------------------------------------|
Db|-------------------------------------------------|
Ab|--------------------5-----------3-----------5----|
Db|--3--2--0--2--0--2-----2--0--2-----2--0--2-----0-|

Main Riff

   GTR I,II (Heavy Distortion)
eb|-------------------------------------------------|
Bb|-------------------------------------------------|
Gb|-------------------------------------------------|
Db|-------------------------------------------------|
Ab|--------------------5-----------3-----------2----|
Db|--3--2--0--2--0--2-----2--0--2-----2--0--2-----0-|

   GTR I,II
eb|-------------------------------------------------|
Bb|-------------------------------------------------|
Gb|-------------------------------------------------|
Db|-------------------------------------------------|
Ab|--------------------5-----------3-----------5----|
Db|--3--2--0--2--0--2-----2--0--2-----2--0--2-----0-|

   GTR I,II
eb|-------------------------------------------------|
Bb|-------------------------------------------------|
Gb|-------------------------------------------------|
Db|-------------------------------------------------|
Ab|--------------------5-----------3-----------2----|
Db|--3--2--0--2--0--2-----2--0--2-----2--0--2-----0-|

   GTR I,II
eb|-------------------------------------------------|
Bb|-------------------------------------------------|
Gb|-------------------------------------------------|
Db|-------------------------------------------------|
Ab|--------------------5-----------3-----------5----|
Db|--3--2--0--2--0--2-----2--0--2-----2--0--2-----0-|

Verse

   GTR I,II
     |trp|              |trp|
eb|---------------------------------------------------|
Bb|---------------------------------------------------|
Gb|---------------------------------------------------|
Db|---------------------------------------------------|
Ab|--3-2-0--0--2--0--2--3-2-0--0--2--0--2--3--2--0----|
Db|--3-2-0--0--2--0--2--3-2-0--0--2--0--2--3--2--0----|
     . . .  .  .  .  .  . . .  .  .  .  .  .  .  .

   GTR I,II
     |trp|              |trp|
eb|---------------------------------------------------|
Bb|---------------------------------------------------|
Gb|---------------------------------------------------|
Db|---------------------------------------------------|
Ab|--3-2-0--0--2--0--2--3-2-0--0--2--0--2--5--2--0----|
Db|--3-2-0--0--2--0--2--3-2-0--0--2--0--2--5--2--0----|
     . . .  .  .  .  .  . . .  .  .  .  .  .  .  .

   GTR I,II
     |trp|              |trp|
eb|---------------------------------------------------|
Bb|---------------------------------------------------|
Gb|---------------------------------------------------|
Db|---------------------------------------------------|
Ab|--3-2-0--0--2--0--2--3-2-0--0--2--0--2--3--2--0----|
Db|--3-2-0--0--2--0--2--3-2-0--0--2--0--2--3--2--0----|
     . . .  .  .  .  .  . . .  .  .  .  .  .  .  .

   GTR I,II
     |trp|                     
eb|--------------------------------------------------|
Bb|--------------------------------------------------|
Gb|--------------------------------------------------|
Db|--------------------------------------------------|
Ab|--3-2-0--0--2--0--2--5--2--0--2--3--2--0--2--2----|
Db|--3-2-0--0--2--0--2-----2--0--2-----2--0--2--2----|
     . . .  .  .  .  .     .  .  .     .  .  .      

   GTR I,II
     |trp|              |trp|
eb|---------------------------------------------------|
Bb|---------------------------------------------------|
Gb|---------------------------------------------------|
Db|---------------------------------------------------|
Ab|--3-2-0--0--2--0--2--3-2-0--0--2--0--2--3--2--0----|
Db|--3-2-0--0--2--0--2--3-2-0--0--2--0--2--3--2--0----|
     . . .  .  .  .  .  . . .  .  .  .  .  .  .  .

   GTR I,II
     |trp|              |trp|
eb|---------------------------------------------------|
Bb|---------------------------------------------------|
Gb|---------------------------------------------------|
Db|---------------------------------------------------|
Ab|--3-2-0--0--2--0--2--3-2-0--0--2--0--2--5--2--0----|
Db|--3-2-0--0--2--0--2--3-2-0--0--2--0--2--5--2--0----|
     . . .  .  .  .  .  . . .  .  .  .  .  .  .  .

   GTR I,II
     |trp|              |trp|
eb|---------------------------------------------------|
Bb|---------------------------------------------------|
Gb|---------------------------------------------------|
Db|---------------------------------------------------|
Ab|--3-2-0--0--2--0--2--3-2-0--0--2--0--2--3--2--0----|
Db|--3-2-0--0--2--0--2--3-2-0--0--2--0--2--3--2--0----|
     . . .  .  .  .  .  . . .  .  .  .  .  .  .  .

   GTR I,II
     |trp|                     
eb|--------------------------------------------------|
Bb|--------------------------------------------------|
Gb|--------------------------------------------------|
Db|--------------------------------------------------|
Ab|--3-2-0--0--2--0--2--5--2--0--2--3--2--0--2--5----|
Db|--3-2-0--0--2--0--2-----2--0--2-----2--0--2--5----|
     . . .  .  .  .  .     .  .  .     .  .  .      

Chorus

   GTR I,II
eb|-------------------------------------------------|
Bb|-------------------------------------------------|
Gb|--------------------5--------5-----5--5--5--5--5-|
Db|--2--------2--------5--------5-----5--5--5--5--5-|
Ab|--2--------2--------3--------3-----3--3--3--3--3-|
Db|--2--------2-------------------------------------|

   GTR I,II
eb|-------------------------------------------------|
Bb|-------------------------------------------------|
Gb|--------------------------4--------5--------4----|
Db|--------4--4--4--4--4--4--x--------x--------x----|
Ab|--------4--4--4--4--4--4--2--------3--------2----|
Db|--------4--4--4--4--4--4-------------------------|

   GTR I,II
eb|-------------------------------------------------|
Bb|-------------------------------------------------|
Gb|--------------------5--------5-----5--5--5--5--5-|
Db|--2--------2--------5--------5-----5--5--5--5--5-|
Ab|--2--------2--------3--------3-----3--3--3--3--3-|
Db|--2--------2-------------------------------------|

   GTR I,II
eb|-------------------------------------------------|
Bb|-------------------------------------------------|
Gb|--------------------------------4--------7-------|
Db|--4--------4--------4-----------4--------7-------|
Ab|--4--------4--------4-----x--x--2--------5-------|
Db|--4--------4--------4-----x--x-------------------|

   GTR I,II
eb|-------------------------------------------------|
Bb|-------------------------------------------------|
Gb|--------------------5--------5-----5--5--5--5--5-|
Db|--2--------2--------5--------5-----5--5--5--5--5-|
Ab|--2--------2--------3--------3-----3--3--3--3--3-|
Db|--2--------2-------------------------------------|

   GTR I,II
eb|-------------------------------------------------|
Bb|-------------------------------------------------|
Gb|--------------------------4--------5--------4----|
Db|--------4--4--4--4--4--4--x--------x--------x----|
Ab|--------4--4--4--4--4--4--2--------3--------2----|
Db|--------4--4--4--4--4--4-------------------------|

   GTR I,II
eb|-------------------------------------------------|
Bb|-------------------------------------------------|
Gb|-------------------------------------------------|
Db|--2--------2--------0--------0-----0--0--0--0--0-|
Ab|--2--------2--------0--------0-----0--0--0--0--0-|
Db|--2--------2--------0--------0-----0--0--0--0--0-|

   GTR I,II
eb|-------------------------------------------------|
Bb|-------------------------------------------------|
Gb|--5--------5-----5--5--------5--5--5--5--5--5--5-|
Db|--5--------5-----5--5--------5--5--5--5--5--5--5-|
Ab|--3--------3-----3--3--------3--3--3--3--3--3--3-|
Db|-------------------------------------------------|

   GTR I,II
eb|-------------------------------------------------|
Bb|-------------------------------------------------|
Gb|--5--------5-----5--5--------5--5--5--5--5--5--5-|
Db|--5--------5-----5--5--------5--5--5--5--5--5--5-|
Ab|--3--------3-----3--3--------3--3--3--3--3--3--3-|
Db|-------------------------------------------------|

Main Riff

   GTR I,II (Heavy Distortion)
eb|-------------------------------------------------|
Bb|-------------------------------------------------|
Gb|-------------------------------------------------|
Db|-------------------------------------------------|
Ab|--------------------5-----------3-----------2----|
Db|--3--2--0--2--0--2-----2--0--2-----2--0--2-----0-|

   GTR I,II
eb|-------------------------------------------------|
Bb|-------------------------------------------------|
Gb|-------------------------------------------------|
Db|-------------------------------------------------|
Ab|--------------------5-----------3-----------5----|
Db|--3--2--0--2--0--2-----2--0--2-----2--0--2-----0-|

   GTR I,II
eb|-------------------------------------------------|
Bb|-------------------------------------------------|
Gb|-------------------------------------------------|
Db|-------------------------------------------------|
Ab|--------------------5-----------3-----------2----|
Db|--3--2--0--2--0--2-----2--0--2-----2--0--2-----0-|

   GTR I,II
eb|-------------------------------------------------|
Bb|-------------------------------------------------|
Gb|-------------------------------------------------|
Db|-------------------------------------------------|
Ab|--------------------5-----------3-----------5----|
Db|--3--2--0--2--0--2-----2--0--2-----2--0--2-----0-|

Verse

   GTR I,II
     |trp|              |trp|
eb|---------------------------------------------------|
Bb|---------------------------------------------------|
Gb|---------------------------------------------------|
Db|---------------------------------------------------|
Ab|--3-2-0--0--2--0--2--3-2-0--0--2--0--2--3--2--0----|
Db|--3-2-0--0--2--0--2--3-2-0--0--2--0--2--3--2--0----|
     . . .  .  .  .  .  . . .  .  .  .  .  .  .  .

   GTR I,II
     |trp|              |trp|
eb|---------------------------------------------------|
Bb|---------------------------------------------------|
Gb|---------------------------------------------------|
Db|---------------------------------------------------|
Ab|--3-2-0--0--2--0--2--3-2-0--0--2--0--2--5--2--0----|
Db|--3-2-0--0--2--0--2--3-2-0--0--2--0--2--5--2--0----|
     . . .  .  .  .  .  . . .  .  .  .  .  .  .  .

   GTR I,II
     |trp|              |trp|
eb|---------------------------------------------------|
Bb|---------------------------------------------------|
Gb|---------------------------------------------------|
Db|---------------------------------------------------|
Ab|--3-2-0--0--2--0--2--3-2-0--0--2--0--2--3--2--0----|
Db|--3-2-0--0--2--0--2--3-2-0--0--2--0--2--3--2--0----|
     . . .  .  .  .  .  . . .  .  .  .  .  .  .  .

   GTR I,II
     |trp|                     
eb|--------------------------------------------------|
Bb|--------------------------------------------------|
Gb|--------------------------------------------------|
Db|--------------------------------------------------|
Ab|--3-2-0--0--2--0--2--5--2--0--2--3--2--0--2--2----|
Db|--3-2-0--0--2--0--2-----2--0--2-----2--0--2--2----|
     . . .  .  .  .  .     .  .  .     .  .  .      

   GTR I,II
     |trp|              |trp|
eb|---------------------------------------------------|
Bb|---------------------------------------------------|
Gb|---------------------------------------------------|
Db|---------------------------------------------------|
Ab|--3-2-0--0--2--0--2--3-2-0--0--2--0--2--3--2--0----|
Db|--3-2-0--0--2--0--2--3-2-0--0--2--0--2--3--2--0----|
     . . .  .  .  .  .  . . .  .  .  .  .  .  .  .

   GTR I,II
     |trp|              |trp|
eb|---------------------------------------------------|
Bb|---------------------------------------------------|
Gb|---------------------------------------------------|
Db|---------------------------------------------------|
Ab|--3-2-0--0--2--0--2--3-2-0--0--2--0--2--5--2--0----|
Db|--3-2-0--0--2--0--2--3-2-0--0--2--0--2--5--2--0----|
     . . .  .  .  .  .  . . .  .  .  .  .  .  .  .

   GTR I,II
     |trp|              |trp|
eb|---------------------------------------------------|
Bb|---------------------------------------------------|
Gb|---------------------------------------------------|
Db|---------------------------------------------------|
Ab|--3-2-0--0--2--0--2--3-2-0--0--2--0--2--3--2--0----|
Db|--3-2-0--0--2--0--2--3-2-0--0--2--0--2--3--2--0----|
     . . .  .  .  .  .  . . .  .  .  .  .  .  .  .

   GTR I,II
     |trp|                     
eb|--------------------------------------------------|
Bb|--------------------------------------------------|
Gb|--------------------------------------------------|
Db|--------------------------------------------------|
Ab|--3-2-0--0--2--0--2--5--2--0--2--3--2--0--2--5----|
Db|--3-2-0--0--2--0--2-----2--0--2-----2--0--2--5----|
     . . .  .  .  .  .     .  .  .     .  .  .      

Chorus

   GTR I,II
eb|-------------------------------------------------|
Bb|-------------------------------------------------|
Gb|--------------------5--------5-----5--5--5--5--5-|
Db|--2--------2--------5--------5-----5--5--5--5--5-|
Ab|--2--------2--------3--------3-----3--3--3--3--3-|
Db|--2--------2-------------------------------------|

   GTR I,II
eb|-------------------------------------------------|
Bb|-------------------------------------------------|
Gb|--------------------------4--------5--------4----|
Db|--------4--4--4--4--4--4--x--------x--------x----|
Ab|--------4--4--4--4--4--4--2--------3--------2----|
Db|--------4--4--4--4--4--4-------------------------|

   GTR I,II
eb|-------------------------------------------------|
Bb|-------------------------------------------------|
Gb|--------------------5--------5-----5--5--5--5--5-|
Db|--2--------2--------5--------5-----5--5--5--5--5-|
Ab|--2--------2--------3--------3-----3--3--3--3--3-|
Db|--2--------2-------------------------------------|

   GTR I,II
eb|-------------------------------------------------|
Bb|-------------------------------------------------|
Gb|--------------------------------4--------7-------|
Db|--4--------4--------4-----------4--------7-------|
Ab|--4--------4--------4-----x--x--2--------5-------|
Db|--4--------4--------4-----x--x-------------------|

   GTR I,II
eb|-------------------------------------------------|
Bb|-------------------------------------------------|
Gb|--------------------5--------5-----5--5--5--5--5-|
Db|--2--------2--------5--------5-----5--5--5--5--5-|
Ab|--2--------2--------3--------3-----3--3--3--3--3-|
Db|--2--------2-------------------------------------|

   GTR I,II
eb|-------------------------------------------------|
Bb|-------------------------------------------------|
Gb|--------------------------4--------5--------4----|
Db|--------4--4--4--4--4--4--x--------x--------x----|
Ab|--------4--4--4--4--4--4--2--------3--------2----|
Db|--------4--4--4--4--4--4-------------------------|

   GTR I,II
eb|-------------------------------------------------|
Bb|-------------------------------------------------|
Gb|-------------------------------------------------|
Db|--2--------2--------0--------0-----0--0--0--0--0-|
Ab|--2--------2--------0--------0-----0--0--0--0--0-|
Db|--2--------2--------0--------0-----0--0--0--0--0-|

   GTR I,II
eb|-------------------------------------------------|
Bb|-------------------------------------------------|
Gb|--5--------5-----5--5--------5--5--5--5--5--5--5-|
Db|--5--------5-----5--5--------5--5--5--5--5--5--5-|
Ab|--3--------3-----3--3--------3--3--3--3--3--3--3-|
Db|-------------------------------------------------|

   GTR I,II
eb|-------------------------------------------------|
Bb|-------------------------------------------------|
Gb|--5--------5-----5--5--------5--5--5--5--5--5--5-|
Db|--5--------5-----5--5--------5--5--5--5--5--5--5-|
Ab|--3--------3-----3--3--------3--3--3--3--3--3--3-|
Db|-------------------------------------------------|

Bridge

   GTR I,II
eb|-------------------------------------------------|
Bb|-------------------------------------------------|
Gb|-------------------------------------------------|
Db|-14\-------2-----3--2--------2-----3--2----------|
Ab|-14\-------2-----3--2-----x--2-----3--2-----0--0-|
Db|-14\-------2-----3--2-----x--2-----3--2-----0--0-|
                                               .  .

   GTR I,II
eb|-------------------------------------------------|
Bb|-------------------------------------------------|
Gb|-------------------------------------------------|
Db|-14\-------2-----3--2-----7--8--7--------3-----3-|
Ab|-14\-------2-----3--2-----7--8--7-----x--3-----3-|
Db|-14\-------2-----3--2-----7--8--7-----x--3-----3-|
                                                   
   GTR I,II
eb|-------------------------------------------------|
Bb|-------------------------------------------------|
Gb|-------------------------------------------------|
Db|-14\-------2-----3--2--------2-----3--2----------|
Ab|-14\-------2-----3--2-----x--2-----3--2-----0--0-|
Db|-14\-------2-----3--2-----x--2-----3--2-----0--0-|
                                               .  .

   GTR I,II
eb|-------------------------------------------------|
Bb|-------------------------------------------------|
Gb|-------------------------------------------------|
Db|-14\-------2-----3--2-----7--8--7-------10----10-|
Ab|-14\-------2-----3--2-----7--8--7-----x-10----10-|
Db|-14\-------2-----3--2-----7--8--7-----x-10----10-|
                                                   
   GTR I,II
eb|-------------------------------------------------|
Bb|-------------------------------------------------|
Gb|-------------------------------------------------|
Db|-14\-------2-----3--2--------2-----3--2----------|
Ab|-14\-------2-----3--2-----x--2-----3--2-----0--0-|
Db|-14\-------2-----3--2-----x--2-----3--2-----0--0-|
                                               .  .

   GTR I,II
eb|-------------------------------------------------|
Bb|-------------------------------------------------|
Gb|-------------------------------------------------|
Db|-14\-------2-----3--2-----7--8--7--------3-----3-|
Ab|-14\-------2-----3--2-----7--8--7-----x--3-----3-|
Db|-14\-------2-----3--2-----7--8--7-----x--3-----3-|
                                                   
   GTR I,II
eb|-------------------------------------------------|
Bb|-------------------------------------------------|
Gb|-------------------------------------------------|
Db|-14\-------2-----3--2--------2-----3--2----------|
Ab|-14\-------2-----3--2-----x--2-----3--2-----0--0-|
Db|-14\-------2-----3--2-----x--2-----3--2-----0--0-|
                                               .  .

   GTR I,II
eb|-------------------------------------------------|
Bb|-------------------------------------------------|
Gb|-------------------------------------------------|
Db|-14\-------2-----3--2-----7--8--7-------10----10-|
Ab|-14\-------2-----3--2-----7--8--7-----x-10----10-|
Db|-14\-------2-----3--2-----7--8--7-----x-10----10-|

   GTR I,II
eb|-------------------------------------------------|
Bb|-------------------------------------------------|
Gb|-------------------------------------------------|
Db|-14\-------2-----3--2--------2-----3--2----------|
Ab|-14\-------2-----3--2-----x--2-----3--2-----0--0-|
Db|-14\-------2-----3--2-----x--2-----3--2-----0--0-|
                                               .  .

   GTR I,II
eb|-------------------------------------------------|
Bb|-------------------------------------------------|
Gb|-------------------------------------------------|
Db|-14\-------2-----3--2-----7--8--7--------3-----3-|
Ab|-14\-------2-----3--2-----7--8--7-----x--3-----3-|
Db|-14\-------2-----3--2-----7--8--7-----x--3-----3-|
                                                   
   GTR I,II
eb|-------------------------------------------------|
Bb|-------------------------------------------------|
Gb|-------------------------------------------------|
Db|-14\-------2-----3--2--------2-----3--2----------|
Ab|-14\-------2-----3--2-----x--2-----3--2-----0--0-|
Db|-14\-------2-----3--2-----x--2-----3--2-----0--0-|
                                               .  .

   GTR I
eb|-------------------------------------------------|
Bb|-------------------------------------------------|
Gb|-------------------------------------------------|
Db|-14\-------2-----3--2-----7--8--7-------10----10-|
Ab|-14\-------2-----3--2-----7--8--7-----x-10----10-|
Db|-14\-------2-----3--2-----7--8--7-----x-10----10-|
  |
  |GTR II
eb|-------------------------------------------------|
Bb|-------------------------------------------------|
Gb|-------------------------------------------------|
Db|-14\-------2-----3--2----------------------------|
Ab|-14\-------2-----3--2----------------------------|
Db|-14\-------2-----3--2----------------------------|

Chorus

   GTR I,II
eb|-------------------------------------------------|
Bb|-------------------------------------------------|
Gb|--------------------5--------5-----5--5--5--5--5-|
Db|--2--------2--------5--------5-----5--5--5--5--5-|
Ab|--2--------2--------3--------3-----3--3--3--3--3-|
Db|--2--------2-------------------------------------|

   GTR I,II
eb|-------------------------------------------------|
Bb|-------------------------------------------------|
Gb|--------------------------4--------5--------4----|
Db|--------4--4--4--4--4--4--x--------x--------x----|
Ab|--------4--4--4--4--4--4--2--------3--------2----|
Db|--------4--4--4--4--4--4-------------------------|

   GTR I,II
eb|-------------------------------------------------|
Bb|-------------------------------------------------|
Gb|--------------------5--------5-----5--5--5--5--5-|
Db|--2--------2--------5--------5-----5--5--5--5--5-|
Ab|--2--------2--------3--------3-----3--3--3--3--3-|
Db|--2--------2-------------------------------------|

   GTR I,II
eb|-------------------------------------------------|
Bb|-------------------------------------------------|
Gb|--------------------------------4----------------|
Db|--4--------4--------4-----------4----------------|
Ab|--4--------4--------4-----x--x--2-----0--0--0--0-|
Db|--4--------4--------4-----x--x--------0--0--0--0-|
                                         .  .  .  .

   GTR I,II
eb|-------------------------------------------------|
Bb|-------------------------------------------------|
Gb|--------------------5--------5-----5--5--5--5--5-|
Db|--2--------2--------5--------5-----5--5--5--5--5-|
Ab|--2--------2--------3--------3-----3--3--3--3--3-|
Db|--2--------2-------------------------------------|

   GTR I,II
eb|-------------------------------------------------|
Bb|-------------------------------------------------|
Gb|--------------------------4--------5--------4----|
Db|--------4--4--4--4--4--4--x--------x--------x----|
Ab|--------4--4--4--4--4--4--2--------3--------2----|
Db|--------4--4--4--4--4--4-------------------------|

   GTR I,II
eb|-------------------------------------------------|
Bb|-------------------------------------------------|
Gb|-------------------------------------------------|
Db|--2--------2--------0--------0-----0--0--0--0--0-|
Ab|--2--------2--------0--------0-----0--0--0--0--0-|
Db|--2--------2--------0--------0-----0--0--0--0--0-|

   GTR I,II
eb|-------------------------------------------------|
Bb|-------------------------------------------------|
Gb|--5--------5-----5--5--------5--5--5--5--5--5--5-|
Db|--5--------5-----5--5--------5--5--5--5--5--5--5-|
Ab|--3--------3-----3--3--------3--3--3--3--3--3--3-|
Db|-------------------------------------------------|

   GTR I,II
eb|-------------------------------------------------|
Bb|-------------------------------------------------|
Gb|--5--------5-----5--5--------5--5--5--5--5--5--5-|
Db|--5--------5-----5--5--------5--5--5--5--5--5--5-|
Ab|--3--------3-----3--3--------3--3--3--3--3--3--3-|
Db|-------------------------------------------------|

   GTR I,II
eb|-------------------------------------------------|
Bb|-------------------------------------------------|
Gb|--5--------5-----5--5--------5--5--5--5--5--5--5-|
Db|--5--------5-----5--5--------5--5--5--5--5--5--5-|
Ab|--3--------3-----3--3--------3--3--3--3--3--3--3-|
Db|-------------------------------------------------|

   GTR I,II
eb|-------------------------------------------------|
Bb|-------------------------------------------------|
Gb|--5----------------------------------------------|
Db|--5----------------------------------------------|
Ab|--3----------------------------------------------|
Db|-------------------------------------------------|

Main Riff

   GTR I,II (Heavy Distortion)
eb|-------------------------------------------------|
Bb|-------------------------------------------------|
Gb|-------------------------------------------------|
Db|-------------------------------------------------|
Ab|--------------------5-----------3-----------2----|
Db|--3--2--0--2--0--2-----2--0--2-----2--0--2-----0-|

   GTR I,II
eb|-------------------------------------------------|
Bb|-------------------------------------------------|
Gb|-------------------------------------------------|
Db|-------------------------------------------------|
Ab|--------------------5-----------3-----------5----|
Db|--3--2--0--2--0--2-----2--0--2-----2--0--2-----0-|

   GTR I,II
eb|-------------------------------------------------|
Bb|-------------------------------------------------|
Gb|-------------------------------------------------|
Db|-------------------------------------------------|
Ab|--------------------5-----------3-----------2----|
Db|--3--2--0--2--0--2-----2--0--2-----2--0--2-----0-|

   GTR I,II
eb|-------------------------------------------------|
Bb|-------------------------------------------------|
Gb|-------------------------------------------------|
Db|-------------------------------------------------|
Ab|--------------------5-----------3-----------5----|
Db|--3--2--0--2--0--2-----2--0--2-----2--0--2-----0-|

Outro

   GTR I,II (Heavy Distortion)
eb|-------------------------------------------------|
Bb|-------------------------------------------------|
Gb|-------------------------------------------------|
Db|-------------------------------------------------|
Ab|--------------------5-----------3-----------2----|
Db|--3--2--0--2--0--2-----2--0--2-----2--0--2-----0-|
     .  .  .  .  .  .     .  .  .     .  .  .     .

   GTR I,II
eb|-------------------------------------------------|
Bb|-------------------------------------------------|
Gb|-------------------------------------------------|
Db|-------------------------------------------------|
Ab|--------------------5-----------3-----------5----|
Db|--3--2--0--2--0--2-----2--0--2-----2--0--2-----0-|
     .  .  .  .  .  .     .  .  .     .  .  .     .

   GTR I,II
eb|-------------------------------------------------|
Bb|-------------------------------------------------|
Gb|-------------------------------------------------|
Db|-------------------------------------------------|
Ab|--------------------5-----------3-----------2----|
Db|--3--2--0--2--0--2-----2--0--2-----2--0--2-----0-|
     .  .  .  .  .  .     .  .  .     .  .  .     .

   GTR I,II
eb|-------------------------------------------------|
Bb|-------------------------------------------------|
Gb|-------------------------------------------------|
Db|-------------------------------------------------|
Ab|--------------------5-----------3-----------5----|
Db|--3--2--0--2--0--2-----2--0--2-----2--0--2-------|


| b  bend
| r  release bend
|trp triplet
|PH. pinch harmonic
|fbk feedback
| .  palm-mute
| /  slide up
| \  slide down
| h  hammer-on
| p  pull-off
| ~  vibrato
| +  harmonic
| x  Mute note
===============================================================================
comments
print report bad tab
I want to post or [tab]
guest
You may want to rate the tab now too:
select rating
Please do not post tabs as comments. Select "correction" instead!