Oops, an error
Loading. Please wait.

Im Alive Tab

ver4
ver4

Whole song

Interactive

More versions @911Tabs.com
1,530 views 9 this week
no commentswrite comment
1 2 3 4 5
accurate
x 2
Autoscroll
+/-
esc
set tempo
stop
Contributor
Difficulty
Tuning
novice
C G C F A D
WARNING: You are trying to view
                                    content from Ultimate-Guitar.com
                                    in an unauthorized application,
                                    which is prohibited.

                                    Please use an official Ultimate
                                    Guitar Tabs application for iPhone,
                                    iPad or Android to access legitimate
                                    chords, guitar, bass, and drum tabs
                                    from Ultimate-Guitar.com database.

                                    Type "ultimate guitar tabs" in Apple
                                    App Store's or Android Market's
                                    search to find the application.
Disturbed: I'm Alive

Transcribed by: Andrew Zara (disturbedfreak0520@yahoo.com)

Date last modified: June 11, 2007

PLEASE DO NOT COPY THIS TAB TO ANOTHER SITE
WITHOUT AUTHORS' PERMISSION. THANK YOU.

Tuning: Drop C (C,G,C,F,A,D)


          PM PM  PM PM         PM PM  PM PM         PM PM  PM PM  
     Q    E  E   E  E     Q    E  E   E  E     Q    E  E   E  E   
D||--------------------|--------------------|--------------------|
A||--------------------|--------------------|--------------------|
F||--------------------|--------------------|--------------------|
C||--5-----------------|--6-----------------|--6-----------------|
G||--5----0--5p--0--0--|--6----0--5p--0--0--|--6----0--5p--0--0--|
C||--5----0--5p--0--0--|--6----0--5p--0--0--|--6----0--5p--0--0--|


                      PM PM  PM PM         PM PM  PM PM         PM PM  PM PM  
  E  E  E  E     Q    E  E   E  E     Q    E  E   E  E     Q    E  E   E  E   
--------------|--------------------|--------------------|--------------------|
--------------|--------------------|--------------------|--------------------|
--------------|--------------------|--------------------|--------------------|
--6--8--x--x--|--5-----------------|--6-----------------|--6-----------------|
--6--8--x--x--|--5----0--5p--0--0--|--6----0--5p--0--0--|--6----0--5p--0--0--|
--6--8--x--x--|--5----0--5p--0--0--|--6----0--5p--0--0--|--6----0--5p--0--0--|


                                  PM PM  PM PM         PM PM  PM PM  
  E  E  E  E  E  E  E  E     Q    E  E   E  E     Q    E  E   E  E   
--------------------------|--------------------|--------------------|
--------------------------|--------------------|--------------------|
--------------------------|--------------------|--------------------|
--6--8--x--6--8--x--6--8--|--5-----------------|--6-----------------|
--6--8--x--6--8--x--6--8--|--5----0--5p--0--0--|--6----0--5p--0--0--|
--6--8--x--6--8--x--6--8--|--5----0--5p--0--0--|--6----0--5p--0--0--|


       PM PM  PM PM                                                           
  Q    E  E   E  E     E  E  E  E     E  E  E  E  E  E     E  E  E  E  E  E   
--------------------|--------------|--------------------|--------------------|
--------------------|--------------|--4--4--4--4--4--4--|--7--7--6--6--4--4--|
--------------------|--------------|--3--3--3--3--3--3--|--6--6--5--5--3--3--|
--6-----------------|--6--8--x--x--|--1--1--1--1--1--1--|--4--4--3--3--1--1--|
--6----0--5p--0--0--|--6--8--x--x--|--1--1--1--1--1--1--|--4--4--3--3--1--1--|
--6----0--5p--0--0--|--6--8--x--x--|--1--1--1--1--1--1--|--4--4--3--3--1--1--|


                                            PM      PM    PM  
  E  E  E  E  E  E     E  E  E  E  E  E     Q    E  E  E  E   
--------------------|--------------------|-------------------|
--4--4--4--4--4--4--|--7--7--6--6--------|-------------------|
--3--3--3--3--3--3--|--6--6--5--5--------|-------------------|
--1--1--1--1--1--1--|--4--4--3--3--5-----|--5-------5-----5--|
--1--1--1--1--1--1--|--4--4--3--3--5--L--|--5-------5-----5--|
--1--1--1--1--1--1--|--4--4--3--3--5--L--|--5-------5-----5--|


  PM   PM PM PM             PM   PM   PM      PM      PM    PM  
  Q    E  E  E  E           Q    Q    Q       Q    E  E  E  E   
-------------------|-----|-----------------|-------------------|
-------------------|-----|-----------------|-------------------|
-------------------|-----|-----------------|-------------------|
--5----5--5--5-----|-----|--8----6----8----|--5-------5-----5--|
--5----5--5--5-----|-----|--8----6----8----|--5-------5-----5--|
--5----5--5--5-----|-----|--8----6----8----|--5-------5-----5--|


  PM   PM PM PM             PM   PM   PM      PM      PM    PM  
  Q    E  E  E  E           Q    Q    Q       Q    E  E  E  E   
-------------------|-----|-----------------|-------------------|
-------------------|-----|-----------------|-------------------|
-------------------|-----|-----------------|-------------------|
--5----5--5--5-----|-----|--8----6----5----|--5-------5-----5--|
--5----5--5--5-----|-----|--8----6----5----|--5-------5-----5--|
--5----5--5--5-----|-----|--8----6----5----|--5-------5-----5--|


  PM   PM PM PM             PM   PM   PM                         
  Q    E  E  E  E           Q    Q    Q       E  E  E  E  E  E   
-------------------|-----|-----------------|--------------------|
-------------------|-----|-----------------|--4--4--4--4--4--4--|
-------------------|-----|-----------------|--3--3--3--3--3--3--|
--5----5--5--5-----|-----|--8----6----8----|--1--1--1--1--1--1--|
--5----5--5--5-----|-----|--8----6----8----|--1--1--1--1--1--1--|
--5----5--5--5-----|-----|--8----6----8----|--1--1--1--1--1--1--|


                                                        PM     
  E  E  E  E  E  E     E  E  E  E  E  E     E  E  E  E  E  E   
--------------------|--------------------|--------------------|
--7--7--6--6--4--4--|--4--4--4--4--4--4--|--7--7--6--6--------|
--6--6--5--5--3--3--|--3--3--3--3--3--3--|--6--6--5--5--------|
--4--4--3--3--1--1--|--1--1--1--1--1--1--|--4--4--3--3--5-----|
--4--4--3--3--1--1--|--1--1--1--1--1--1--|--4--4--3--3--5--L--|
--4--4--3--3--1--1--|--1--1--1--1--1--1--|--4--4--3--3--5--L--|


       PM PM  PM PM           PM PM  PM PM         PM PM  PM PM  
  Q    E  E   E  E     E   E  E  E   E  E     Q    E  E   E  E   
--------------------|----------------------|--------------------|
--------------------|----------------------|--------------------|
--------------------|----------------------|--------------------|
--5-----------------|--3s--5---------------|--6-----------------|
--5----0--5p--0--0--|--3s--5--0--5p--0--0--|--6----0--5---0--0--|
--5----0--5p--0--0--|--3s--5--0--5p--0--0--|--6----0--5p--0--0--|


                         PM PM  PM PM           PM PM  PM PM  
  Q    Q    Q       Q    E  E   E  E     E   E  E  E   E  E   
-----------------|--------------------|----------------------|
-----------------|--------------------|----------------------|
-----------------|--------------------|----------------------|
--8----6----8----|--5-----------------|--3s--5---------------|
--8----6----8----|--5----0--5p--0--0--|--3s--5--0--5p--0--0--|
--8----6----8----|--5----0--5p--0--0--|--3s--5--0--5p--0--0--|


       PM PM  PM PM                           PM PM  PM PM  
  Q    E  E   E  E     Q    Q    Q       Q    E  E   E  E   
--------------------|-----------------|--------------------|
--------------------|-----------------|--------------------|
--------------------|-----------------|--------------------|
--6-----------------|--8----6----5----|--5-----------------|
--6----0--5---0--0--|--8----6----5----|--5----0--5p--0--0--|
--6----0--5p--0--0--|--8----6----5----|--5----0--5p--0--0--|


         PM PM  PM PM         PM PM  PM PM                    
  E   E  E  E   E  E     Q    E  E   E  E     Q    Q    Q     
----------------------|--------------------|-----------------|
----------------------|--------------------|-----------------|
----------------------|--------------------|-----------------|
--3s--5---------------|--6-----------------|--8----6----8----|
--3s--5--0--5p--0--0--|--6----0--5---0--0--|--8----6----8----|
--3s--5--0--5p--0--0--|--6----0--5p--0--0--|--8----6----8----|


  E  E  E  E  E  E     E  E  E  E  E  E     E  E  E  E  E  E   
--------------------|--------------------|--------------------|
--4--4--4--4--4--4--|--7--7--6--6--4--4--|--4--4--4--4--4--4--|
--3--3--3--3--3--3--|--6--6--5--5--3--3--|--3--3--3--3--3--3--|
--1--1--1--1--1--1--|--4--4--3--3--1--1--|--1--1--1--1--1--1--|
--1--1--1--1--1--1--|--4--4--3--3--1--1--|--1--1--1--1--1--1--|
--1--1--1--1--1--1--|--4--4--3--3--1--1--|--1--1--1--1--1--1--|


              PM                                               
  E  E  E  E  E  E     E  E  E  E  E  E     E  E  E  E  E  E   
--------------------|--------------------|--------------------|
--7--7--6--6--------|--------------------|--------------------|
--6--6--5--5--------|--7--7--L--7--L--7--|--7--L--7--7--7--7--|
--4--4--3--3--5-----|--5--5--L--5--L--5--|--5--L--5--5--5--5--|
--4--4--3--3--5--L--|--5--5--L--5--L--5--|--5--L--5--5--5--5--|
--4--4--3--3--5--L--|--5--5--L--5--L--5--|--5--L--5--5--5--5--|


   E   E  E   E  E   E      E  E   E   E   E   E     E  E  E  E  E  E   
------------------------|-------------------------|--------------------|
------------------------|-------------------------|--------------------|
--10--10--L--10--L--10--|--10--L--10--10--10--10--|--3--3--L--3--L--3--|
---8---8--L---8--L---8--|---8--L---8---8---8---8--|--1--1--L--1--L--1--|
---8---8--L---8--L---8--|---8--L---8---8---8---8--|--1--1--L--1--L--1--|
---8---8--L---8--L---8--|---8--L---8---8---8---8--|--1--1--L--1--L--1--|


  E  E  E  E  E  E     E  E  E  E  E  E     E  E  E  E  E  E   
--------------------|--------------------|--------------------|
--------------------|--------------------|--------------------|
--3--L--3--3--3--3--|--5--5--L--5--L--5--|--5--L--5--5--5--5--|
--1--L--1--1--1--1--|--3--3--L--3--L--3--|--3--L--3--3--3--3--|
--1--L--1--1--1--1--|--3--3--L--3--L--3--|--3--L--3--3--3--3--|
--1--L--1--1--1--1--|--3--3--L--3--L--3--|--3--L--3--3--3--3--|


  E  E  E  E  E  E     E  E  E  E  E  E      E   E  E   E  E   E   
--------------------|--------------------|------------------------|
--------------------|--------------------|------------------------|
--7--7--L--7--L--7--|--7--L--7--7--7--7--|--10--10--L--10--L--10--|
--5--5--L--5--L--5--|--5--L--5--5--5--5--|---8---8--L---8--L---8--|
--5--5--L--5--L--5--|--5--L--5--5--5--5--|---8---8--L---8--L---8--|
--5--5--L--5--L--5--|--5--L--5--5--5--5--|---8---8--L---8--L---8--|


   E  E   E   E   E   E     E  E  E  E  E  E     E  E  E  E  E  E   
-------------------------|--------------------|--------------------|
-------------------------|--------------------|--------------------|
--10--L--10--10--10--10--|--3--3--L--3--L--3--|--3--L--3--3--3--3--|
---8--L---8---8---8---8--|--1--1--L--1--L--1--|--1--L--1--1--1--1--|
---8--L---8---8---8---8--|--1--1--L--1--L--1--|--1--L--1--1--1--1--|
---8--L---8---8---8---8--|--1--1--L--1--L--1--|--1--L--1--1--1--1--|


   E   E  E   E  E   E      E  E   E   E   E   E     E  E  E  E  E  E   
------------------------|-------------------------|--------------------|
------------------------|-------------------------|--------------------|
--12--12--L--12--L--12--|--12--L--12--12--12--12--|--7--7--L--7--L--7--|
--10--10--L--10--L--10--|--10--L--10--10--10--10--|--5--5--L--5--L--5--|
--10--10--L--10--L--10--|--10--L--10--10--10--10--|--5--5--L--5--L--5--|
--10--10--L--10--L--10--|--10--L--10--10--10--10--|--5--5--L--5--L--5--|


  E  E  E  E  E  E      E   E  E   E  E   E      E  E   E   E   E   E   
--------------------|------------------------|-------------------------|
--------------------|------------------------|-------------------------|
--7--L--7--7--7--7--|--10--10--L--10--L--10--|--10--L--10--10--10--10--|
--5--L--5--5--5--5--|---8---8--L---8--L---8--|---8--L---8---8---8---8--|
--5--L--5--5--5--5--|---8---8--L---8--L---8--|---8--L---8---8---8---8--|
--5--L--5--5--5--5--|---8---8--L---8--L---8--|---8--L---8---8---8---8--|


  E  E  E  E  E  E     E  E  E  E  E  E     E  E  E  E  E  E   
--------------------|--------------------|--------------------|
--------------------|--------------------|--------------------|
--3--3--L--3--L--3--|--3--L--3--3--3--3--|--5--5--L--5--L--5--|
--1--1--L--1--L--1--|--1--L--1--1--1--1--|--3--3--L--3--L--3--|
--1--1--L--1--L--1--|--1--L--1--1--1--1--|--3--3--L--3--L--3--|
--1--1--L--1--L--1--|--1--L--1--1--1--1--|--3--3--L--3--L--3--|


  E  E  E  E  E  E     E  E  E  E  E  E     E  E  E  E  E  E   
--------------------|--------------------|--------------------|
--------------------|--------------------|--------------------|
--5--L--5--5--5--5--|--7--7--L--7--L--7--|--7--L--7--7--7--7--|
--3--L--3--3--3--3--|--5--5--L--5--L--5--|--5--L--5--5--5--5--|
--3--L--3--3--3--3--|--5--5--L--5--L--5--|--5--L--5--5--5--5--|
--3--L--3--3--3--3--|--5--5--L--5--L--5--|--5--L--5--5--5--5--|


   E   E  E   E  E   E      E  E   E   E   E   E     E  E  E  E  E  E   
------------------------|-------------------------|--------------------|
------------------------|-------------------------|--------------------|
--10--10--L--10--L--10--|--10--L--10--10--10--10--|--3--3--L--3--L--3--|
---8---8--L---8--L---8--|---8--L---8---8---8---8--|--1--1--L--1--L--1--|
---8---8--L---8--L---8--|---8--L---8---8---8---8--|--1--1--L--1--L--1--|
---8---8--L---8--L---8--|---8--L---8---8---8---8--|--1--1--L--1--L--1--|


                       PM PM    PM    PM    PM PM    PM    PM  
  E  E  E  E  E  E     E  E  E  E  E  E     E  E  E  E  E  E   
--------------------|--------------------|--------------------|
--------------------|--------------------|--------------------|
--3--L--3--3--3--3--|--------------------|--------------------|
--1--L--1--1--1--1--|--5--5-----5-----5--|--5--5-----5-----5--|
--1--L--1--1--1--1--|--3--3-----3-----3--|--3--3-----3-----3--|
--1--L--1--1--1--1--|--------------------|--------------------|


  PM PM    PM    PM    PM PM    PM    PM                          PM PM PM PM  
  E  E  E  E  E  E     E  E  E  E  E  E     Q.     Q.        Q    E  E  E  E   
--------------------|--------------------|----------------|-------------------|
--------------------|--------------------|----------------|-------------------|
--------------------|--------------------|----------------|-------------------|
--5--5-----5-----5--|--5--5-----5-----5--|--5------0------|--1----1--1--1--1--|
--3--3-----3-----3--|--3--3-----3-----3--|--5------0------|--1----1--1--1--1--|
--------------------|--------------------|--5------0------|--1----1--1--1--1--|


                                                           PM PM PM PM  
  Q.     Q.        Q    Q    Q       Q.     Q.        Q    E  E  E  E   
----------------|-----------------|----------------|-------------------|
----------------|-----------------|----------------|-------------------|
----------------|-----------------|----------------|-------------------|
--5------0------|--1----0----3----|--5------0------|--1----1--1--1--1--|
--5------0------|--1----0----3----|--5------0------|--1----1--1--1--1--|
--5------0------|--1----0----3----|--5------0------|--1----1--1--1--1--|


  Q.     Q.        Q    Q    Q       Q    E  E   E  E     E   E  E  E   E  E   
----------------|-----------------|--------------------|----------------------|
----------------|-----------------|--------------------|----------------------|
----------------|-----------------|--------------------|----------------------|
--5------0------|--1----0----3----|--------------------|----------------------|
--5------0------|--1----0----3----|--------------------|----------------------|
--5------0------|--1----0----3----|--5----0--5p--0--0--|--3s--5--0--5p--0--0--|


  Q    E  E   E  E     Q    Q    Q       Q    E  E   E  E   
--------------------|-----------------|--------------------|
--------------------|-----------------|--------------------|
--------------------|-----------------|--------------------|
--------------------|-----------------|--------------------|
--------------------|-----------------|--------------------|
--6----0--5p--0--0--|--8----6----8----|--5----0--5p--0--0--|


  E   E  E  E   E  E     Q    E  E   E  E     Q    Q    Q     
----------------------|--------------------|-----------------|
----------------------|--------------------|-----------------|
----------------------|--------------------|-----------------|
----------------------|--------------------|-----------------|
----------------------|--------------------|-----------------|
--3s--5--0--5p--0--0--|--6----0--5p--0--0--|--8----6----5----|


  Q    E  E   E  E     E   E  E  E   E  E     Q    E  E   E  E   
--------------------|----------------------|--------------------|
--------------------|----------------------|--------------------|
--------------------|----------------------|--------------------|
--------------------|----------------------|--------------------|
--------------------|----------------------|--------------------|
--5----0--5p--0--0--|--3s--5--0--5p--0--0--|--6----0--5p--0--0--|


  Q    Q    Q       E  E  E  E  E  E     E  E  E  E  E  E   
-----------------|--------------------|--------------------|
-----------------|--4--4--4--4--4--4--|--7--7--6--6--4--4--|
-----------------|--3--3--3--3--3--3--|--6--6--5--5--3--3--|
-----------------|--1--1--1--1--1--1--|--4--4--3--3--1--1--|
-----------------|--1--1--1--1--1--1--|--4--4--3--3--1--1--|
--8----6----8----|--1--1--1--1--1--1--|--4--4--3--3--1--1--|


                                   PM            PM PM  PM PM  
  E  E  E  E  E  E     E  E  E  E  E  E     Q    E  E   E  E   
--------------------|--------------------|--------------------|
--4--4--4--4--4--4--|--7--7--6--6--------|--------------------|
--3--3--3--3--3--3--|--6--6--5--5--------|--------------------|
--1--1--1--1--1--1--|--4--4--3--3--5-----|--5-----------------|
--1--1--1--1--1--1--|--4--4--3--3--5--L--|--5----0--5---0--0--|
--1--1--1--1--1--1--|--4--4--3--3--5--L--|--5----0--5p--0--0--|


         PM PM  PM PM         PM PM  PM PM                    
  E   E  E  E   E  E     Q    E  E   E  E     Q    Q    Q     
----------------------|--------------------|-----------------|
----------------------|--------------------|-----------------|
----------------------|--------------------|-----------------|
--3s--5---------------|--6-----------------|--8----6----8----|
--3s--5--0--5---0--0--|--6----0--5---0--0--|--8----6----8----|
--3s--5--0--5p--0--0--|--6----0--5p--0--0--|--8----6----8----|


       PM PM  PM PM           PM PM  PM PM         PM PM  PM PM  
  Q    E  E   E  E     E   E  E  E   E  E     Q    E  E   E  E   
--------------------|----------------------|--------------------|
--------------------|----------------------|--------------------|
--------------------|----------------------|--------------------|
--5-----------------|--3s--5---------------|--6-----------------|
--5----0--5---0--0--|--3s--5--0--5---0--0--|--6----0--5---0--0--|
--5----0--5p--0--0--|--3s--5--0--5p--0--0--|--6----0--5p--0--0--|


                         PM PM  PM PM           PM PM  PM PM  
  Q    Q    Q       Q    E  E   E  E     E   E  E  E   E  E   
-----------------|--------------------|----------------------|
-----------------|--------------------|----------------------|
-----------------|--------------------|----------------------|
--8----6----5----|--5-----------------|--3s--5---------------|
--8----6----5----|--5----0--5---0--0--|--3s--5--0--5---0--0--|
--8----6----5----|--5----0--5p--0--0--|--3s--5--0--5p--0--0--|


       PM PM  PM PM                                         
  Q    E  E   E  E     Q    Q    Q       E  E  E  E  E  E   
--------------------|-----------------|--------------------|
--------------------|-----------------|--4--4--4--4--4--4--|
--------------------|-----------------|--3--3--3--3--3--3--|
--6-----------------|--8----6----8----|--1--1--1--1--1--1--|
--6----0--5---0--0--|--8----6----8----|--1--1--1--1--1--1--|
--6----0--5p--0--0--|--8----6----8----|--1--1--1--1--1--1--|


                                                        PM     
  E  E  E  E  E  E     E  E  E  E  E  E     E  E  E  E  E  E   
--------------------|--------------------|--------------------|
--7--7--6--6--4--4--|--4--4--4--4--4--4--|--7--7--6--6--------|
--6--6--5--5--3--3--|--3--3--3--3--3--3--|--6--6--5--5--------|
--4--4--3--3--1--1--|--1--1--1--1--1--1--|--4--4--3--3--5-----|
--4--4--3--3--1--1--|--1--1--1--1--1--1--|--4--4--3--3--5--L--|
--4--4--3--3--1--1--|--1--1--1--1--1--1--|--4--4--3--3--5--L--|


  E  E  E  E  E  E     E  E  E  E  E  E      E   E  E   E  E   E   
--------------------|--------------------|------------------------|
--------------------|--------------------|------------------------|
--7--7--L--7--L--7--|--7--L--7--7--7--7--|--10--10--L--10--L--10--|
--5--5--L--5--L--5--|--5--L--5--5--5--5--|---8---8--L---8--L---8--|
--5--5--L--5--L--5--|--5--L--5--5--5--5--|---8---8--L---8--L---8--|
--5--5--L--5--L--5--|--5--L--5--5--5--5--|---8---8--L---8--L---8--|


   E  E   E   E   E   E     E  E  E  E  E  E     E  E  E  E  E  E   
-------------------------|--------------------|--------------------|
-------------------------|--------------------|--------------------|
--10--L--10--10--10--10--|--3--3--L--3--L--3--|--3--L--3--3--3--3--|
---8--L---8---8---8---8--|--1--1--L--1--L--1--|--1--L--1--1--1--1--|
---8--L---8---8---8---8--|--1--1--L--1--L--1--|--1--L--1--1--1--1--|
---8--L---8---8---8---8--|--1--1--L--1--L--1--|--1--L--1--1--1--1--|


  E  E  E  E  E  E     E  E  E  E  E  E     E  E  E  E  E  E   
--------------------|--------------------|--------------------|
--------------------|--------------------|--------------------|
--5--5--L--5--L--5--|--5--L--5--5--5--5--|--7--7--L--7--L--7--|
--3--3--L--3--L--3--|--3--L--3--3--3--3--|--5--5--L--5--L--5--|
--3--3--L--3--L--3--|--3--L--3--3--3--3--|--5--5--L--5--L--5--|
--3--3--L--3--L--3--|--3--L--3--3--3--3--|--5--5--L--5--L--5--|


  E  E  E  E  E  E      E   E  E   E  E   E      E  E   E   E   E   E   
--------------------|------------------------|-------------------------|
--------------------|------------------------|-------------------------|
--7--L--7--7--7--7--|--10--10--L--10--L--10--|--10--L--10--10--10--10--|
--5--L--5--5--5--5--|---8---8--L---8--L---8--|---8--L---8---8---8---8--|
--5--L--5--5--5--5--|---8---8--L---8--L---8--|---8--L---8---8---8---8--|
--5--L--5--5--5--5--|---8---8--L---8--L---8--|---8--L---8---8---8---8--|


  E  E  E  E  E  E     E  E  E  E  E  E      E   E  E   E  E   E   
--------------------|--------------------|------------------------|
--------------------|--------------------|------------------------|
--3--3--L--3--L--3--|--3--L--3--3--3--3--|--12--12--L--12--L--12--|
--1--1--L--1--L--1--|--1--L--1--1--1--1--|--10--10--L--10--L--10--|
--1--1--L--1--L--1--|--1--L--1--1--1--1--|--10--10--L--10--L--10--|
--1--1--L--1--L--1--|--1--L--1--1--1--1--|--10--10--L--10--L--10--|


   E  E   E   E   E   E     E  E  E  E  E  E     E  E  E  E  E  E   
-------------------------|--------------------|--------------------|
-------------------------|--------------------|--------------------|
--12--L--12--12--12--12--|--7--7--L--7--L--7--|--7--L--7--7--7--7--|
--10--L--10--10--10--10--|--5--5--L--5--L--5--|--5--L--5--5--5--5--|
--10--L--10--10--10--10--|--5--5--L--5--L--5--|--5--L--5--5--5--5--|
--10--L--10--10--10--10--|--5--5--L--5--L--5--|--5--L--5--5--5--5--|


   E   E  E   E  E   E      E  E   E   E   E   E     E  E  E  E  E  E   
------------------------|-------------------------|--------------------|
------------------------|-------------------------|--------------------|
--10--10--L--10--L--10--|--10--L--10--10--10--10--|--3--3--L--3--L--3--|
---8---8--L---8--L---8--|---8--L---8---8---8---8--|--1--1--L--1--L--1--|
---8---8--L---8--L---8--|---8--L---8---8---8---8--|--1--1--L--1--L--1--|
---8---8--L---8--L---8--|---8--L---8---8---8---8--|--1--1--L--1--L--1--|


  E  E  E  E  E  E     E  E  E  E  E  E     E  E  E  E  E  E   
--------------------|--------------------|--------------------|
--------------------|--------------------|--------------------|
--3--L--3--3--3--3--|--5--5--L--5--L--5--|--5--L--5--5--5--5--|
--1--L--1--1--1--1--|--3--3--L--3--L--3--|--3--L--3--3--3--3--|
--1--L--1--1--1--1--|--3--3--L--3--L--3--|--3--L--3--3--3--3--|
--1--L--1--1--1--1--|--3--3--L--3--L--3--|--3--L--3--3--3--3--|


  E  E  E  E  E  E     E  E  E  E  E  E      E   E  E   E  E   E   
--------------------|--------------------|------------------------|
--------------------|--------------------|------------------------|
--7--7--L--7--L--7--|--7--L--7--7--7--7--|--10--10--L--10--L--10--|
--5--5--L--5--L--5--|--5--L--5--5--5--5--|---8---8--L---8--L---8--|
--5--5--L--5--L--5--|--5--L--5--5--5--5--|---8---8--L---8--L---8--|
--5--5--L--5--L--5--|--5--L--5--5--5--5--|---8---8--L---8--L---8--|


   E  E   E   E   E   E     E  E  E  E  E  E     E  E  E  E  E  E   
-------------------------|--------------------|--------------------|
-------------------------|--------------------|--------------------|
--10--L--10--10--10--10--|--3--3--L--3--L--3--|--3--L--3--3--3--3--|
---8--L---8---8---8---8--|--1--1--L--1--L--1--|--1--L--1--1--1--1--|
---8--L---8---8---8---8--|--1--1--L--1--L--1--|--1--L--1--1--1--1--|
---8--L---8---8---8---8--|--1--1--L--1--L--1--|--1--L--1--1--1--1--|


  PM PM    PM    PM    PM PM    PM    PM    PM PM    PM    PM  
  E  E  E  E  E  E     E  E  E  E  E  E     E  E  E  E  E  E   
--------------------|--------------------|--------------------|
--------------------|--------------------|--------------------|
--------------------|--------------------|--------------------|
--5--5-----5-----5--|--5--5-----5-----5--|--5--5-----5-----5--|
--3--3-----3-----3--|--3--3-----3-----3--|--3--3-----3-----3--|
--------------------|--------------------|--------------------|


  PM PM    PM    PM                                                         
  E  E  E  E  E  E     Q    Q    Q       Q    Q    Q         Q.     Q.      
--------------------|-----------------|-----------------||-----------------|
--------------------|-----------------|-----------------||-----------------|
--------------------|-----------------|-----------------||*----------------|
--5--5-----5-----5--|--7--------------|-----------------||*--7------8------|
--3--3-----3-----3--|--5--------------|-----------------||---5------8------|
--------------------|--0--------------|-----------------||---7------8------|


  Q    Q    Q       Q.     Q.        Q    Q     Q       Q.     Q.      
-----------------|----------------|------------------|----------------|
-----------------|----------------|------------------|----------------|
-----------------|----------------|------------------|----------------|
--7----7----7----|--7------8------|--7----8----10----|--7------8------|
--5----7----5----|--5------8------|--5----8----10----|--5------8------|
--7----7----7----|--7------8------|--7----8----10----|--7------8------|


                                     PM PM PM PM PM PM                     
  Q    Q    Q       Q.     Q.        E  E  E  E  E  E   4x  Q.     Q.      
-----------------|----------------|---------------------||----------------|
-----------------|----------------|---------------------||----------------|
-----------------|----------------|--------------------*||----------------|
--7----8----7----|--3------3------|--5--5--5-----------*||--7------8------|
--5----8----7----|--3------3------|--3--3--3--5--3--1---||--5------8------|
--7----8----7----|--3------3------|---------------------||--7------8------|


  Q    Q    Q       Q.     Q.        Q    Q     Q       Q.     Q.      
-----------------|----------------|------------------|----------------|
-----------------|----------------|------------------|----------------|
-----------------|----------------|------------------|----------------|
--7----7----7----|--7------8------|--7----8----10----|--7------8------|
--5----7----5----|--5------8------|--5----8----10----|--5------8------|
--7----7----7----|--7------8------|--7----8----10----|--7------8------|


                                                               PM PM  PM PM  
  Q    Q    Q       Q.     Q.        E  E  E  E  E  E     Q    E  E   E  E   
-----------------|----------------|--------------------|--------------------|
-----------------|----------------|--------------------|--------------------|
-----------------|----------------|--------------------|--------------------|
--7----8----7----|--3------3------|--5--5--5-----------|--5-----------------|
--5----8----7----|--3------3------|--3--3--3--5--3--1--|--5----0--5p--0--0--|
--7----8----7----|--3------3------|--------------------|--5----0--5p--0--0--|


       PM PM  PM PM         PM PM  PM PM                        PM PM  PM PM  
  Q    E  E   E  E     Q    E  E   E  E     E  E  E  E     Q    E  E   E  E   
--------------------|--------------------|--------------|--------------------|
--------------------|--------------------|--------------|--------------------|
--------------------|--------------------|--------------|--------------------|
--6-----------------|--6-----------------|--6--8--x--x--|--5-----------------|
--6----0--5p--0--0--|--6----0--5p--0--0--|--6--8--x--x--|--5----0--5p--0--0--|
--6----0--5p--0--0--|--6----0--5p--0--0--|--6--8--x--x--|--5----0--5p--0--0--|


       PM PM  PM PM         PM PM  PM PM                             
  Q    E  E   E  E     Q    E  E   E  E     E  E  E  E  E  E  E  E   
--------------------|--------------------|--------------------------|
--------------------|--------------------|--------------------------|
--------------------|--------------------|--------------------------|
--6-----------------|--6-----------------|--6--8--x--6--8--x--6--8--|
--6----0--5p--0--0--|--6----0--5p--0--0--|--6--8--x--6--8--x--6--8--|
--6----0--5p--0--0--|--6----0--5p--0--0--|--6--8--x--6--8--x--6--8--|


       PM PM  PM PM         PM PM  PM PM         PM PM  PM PM                 
  Q    E  E   E  E     Q    E  E   E  E     Q    E  E   E  E     E  E  E  E   
--------------------|--------------------|--------------------|--------------|
--------------------|--------------------|--------------------|--------------|
--------------------|--------------------|--------------------|--------------|
--5-----------------|--6-----------------|--6-----------------|--6--8--x--x--|
--5----0--5p--0--0--|--6----0--5p--0--0--|--6----0--5p--0--0--|--6--8--x--x--|
--5----0--5p--0--0--|--6----0--5p--0--0--|--6----0--5p--0--0--|--6--8--x--x--|


  E  E  E  E  E  E     E  E  E  E  E  E     E  E  E  E  E  E   
--------------------|--------------------|--------------------|
--4--4--4--4--4--4--|--7--7--6--6--4--4--|--4--4--4--4--4--4--|
--3--3--3--3--3--3--|--6--6--5--5--3--3--|--3--3--3--3--3--3--|
--1--1--1--1--1--1--|--4--4--3--3--1--1--|--1--1--1--1--1--1--|
--1--1--1--1--1--1--|--4--4--3--3--1--1--|--1--1--1--1--1--1--|
--1--1--1--1--1--1--|--4--4--3--3--1--1--|--1--1--1--1--1--1--|


  E  E  E  E  E  E                                                         
--------------------|-----|-----|-----|-----|-----|-----|-----|-----|-----|
--7--7--6--6--------|-----|-----|-----|-----|-----|-----|-----|-----|-----|
--6--6--5--5--------|-----|-----|-----|-----|-----|-----|-----|-----|-----|
--4--4--3--3--5-----|-----|-----|-----|-----|-----|-----|-----|-----|-----|
--4--4--3--3--5--L--|-----|-----|-----|-----|-----|-----|-----|-----|-----|
--4--4--3--3--5--L--|-----|-----|-----|-----|-----|-----|-----|-----|-----|


                                            E  E  E  E  E  E   
-----|-----|-----|-----|-----|-----|-----|--------------------|
-----|-----|-----|-----|-----|-----|-----|--------------------|
-----|-----|-----|-----|-----|-----|-----|--7--7--L--7--L--7--|
-----|-----|-----|-----|-----|-----|-----|--5--5--L--5--L--5--|
-----|-----|-----|-----|-----|-----|-----|--5--5--L--5--L--5--|
-----|-----|-----|-----|-----|-----|-----|--5--5--L--5--L--5--|


  E  E  E  E  E  E      E   E  E   E  E   E      E  E   E   E   E   E   
--------------------|------------------------|-------------------------|
--------------------|------------------------|-------------------------|
--7--L--7--7--7--7--|--10--10--L--10--L--10--|--10--L--10--10--10--10--|
--5--L--5--5--5--5--|---8---8--L---8--L---8--|---8--L---8---8---8---8--|
--5--L--5--5--5--5--|---8---8--L---8--L---8--|---8--L---8---8---8---8--|
--5--L--5--5--5--5--|---8---8--L---8--L---8--|---8--L---8---8---8---8--|


  E  E  E  E  E  E     E  E  E  E  E  E     E  E  E  E  E  E   
--------------------|--------------------|--------------------|
--------------------|--------------------|--------------------|
--3--3--L--3--L--3--|--3--L--3--3--3--3--|--5--5--L--5--L--5--|
--1--1--L--1--L--1--|--1--L--1--1--1--1--|--3--3--L--3--L--3--|
--1--1--L--1--L--1--|--1--L--1--1--1--1--|--3--3--L--3--L--3--|
--1--1--L--1--L--1--|--1--L--1--1--1--1--|--3--3--L--3--L--3--|


  E  E  E  E  E  E     E  E  E  E  E  E     E  E  E  E  E  E   
--------------------|--------------------|--------------------|
--------------------|--------------------|--------------------|
--5--L--5--5--5--5--|--7--7--L--7--L--7--|--7--L--7--7--7--7--|
--3--L--3--3--3--3--|--5--5--L--5--L--5--|--5--L--5--5--5--5--|
--3--L--3--3--3--3--|--5--5--L--5--L--5--|--5--L--5--5--5--5--|
--3--L--3--3--3--3--|--5--5--L--5--L--5--|--5--L--5--5--5--5--|


   E   E  E   E  E   E      E  E   E   E   E   E     E  E  E  E  E  E   
------------------------|-------------------------|--------------------|
------------------------|-------------------------|--------------------|
--10--10--L--10--L--10--|--10--L--10--10--10--10--|--3--3--L--3--L--3--|
---8---8--L---8--L---8--|---8--L---8---8---8---8--|--1--1--L--1--L--1--|
---8---8--L---8--L---8--|---8--L---8---8---8---8--|--1--1--L--1--L--1--|
---8---8--L---8--L---8--|---8--L---8---8---8---8--|--1--1--L--1--L--1--|


                        PM  PM     PM     PM     PM  PM     PM     PM PM 
  E  E  E  E  E  E      E   E  E   E  E   E      E   E  E   E  E   S  S  
--------------------|------------------------|--------------------------|
--------------------|------------------------|--------------------------|
--3--L--3--3--3--3--|------------------------|--------------------------|
--1--L--1--1--1--1--|------------------------|--------------------------|
--1--L--1--1--1--1--|--10--10-----10-----10--|--10--10-----10-----10-10-|
--1--L--1--1--1--1--|--10--10-----10-----10--|--10--10-----10-----10-10-|


   PM  PM     PM     PM     PM  PM     PM     PM     PM  PM     PM     PM  
   E   E  E   E  E   E      E   E  E   E  E   E      E   E  E   E  E   E   
------------------------|------------------------|------------------------|
------------------------|------------------------|------------------------|
------------------------|------------------------|------------------------|
------------------------|------------------------|------------------------|
--10--10-----10-----10--|--10--10-----10-----10--|--10--10-----10-----10--|
--10--10-----10-----10--|--10--10-----10-----10--|--10--10-----10-----10--|


   PM  PM     PM     PM PM    PM  PM     PM     PM                        
   E   E  E   E  E   S  S     E   E  E   E  E   E      E  E  E  E  E  E   
--------------------------|------------------------|---------------------|
--------------------------|------------------------|---------------------|
--------------------------|------------------------|---------------------|
--------------------------|------------------------|--10--8--7--0--1--3--|
--10--10-----10-----10-10-|--10--10-----10-----10--|--10--8--7--0--1--3--|
--10--10-----10-----10-10-|--10--10-----10-----10--|--10--8--7--0--1--3--|


                        PM PM PM PM                                     
  Q.     Q.        Q    E  E  E  E     Q.     Q.        Q    Q    Q     
----------------|-------------------|----------------|-----------------|
----------------|-------------------|----------------|-----------------|
----------------|-------------------|----------------|-----------------|
--5------0------|--1----1--1--1--1--|--5------0------|--1----0----3----|
--5------0------|--1----1--1--1--1--|--5------0------|--1----0----3----|
--5------0------|--1----1--1--1--1--|--5------0------|--1----0----3----|


                        PM PM PM PM                                     
  Q.     Q.        Q    E  E  E  E     Q.     Q.        Q    Q    Q     
----------------|-------------------|----------------|-----------------|
----------------|-------------------|----------------|-----------------|
----------------|-------------------|----------------|-----------------|
--5------0------|--1----1--1--1--1--|--5------0------|--1----0----3----|
--5------0------|--1----1--1--1--1--|--5------0------|--1----0----3----|
--5------0------|--1----1--1--1--1--|--5------0------|--1----0----3----|


                        PM PM PM PM                                     
  Q.     Q.        Q    E  E  E  E     Q.     Q.        Q    Q    Q     
----------------|-------------------|----------------|-----------------|
----------------|-------------------|----------------|-----------------|
----------------|-------------------|----------------|-----------------|
--5------0------|--1----1--1--1--1--|--5------0------|--1----0----3----|
--5------0------|--1----1--1--1--1--|--5------0------|--1----0----3----|
--5------0------|--1----1--1--1--1--|--5------0------|--1----0----3----|


                        PM PM PM PM                                     
  Q.     Q.        Q    E  E  E  E     Q.     Q.        Q    Q    Q     
----------------|-------------------|----------------|-----------------|
----------------|-------------------|----------------|-----------------|
----------------|-------------------|----------------|-----------------|
--5------0------|--1----1--1--1--1--|--5------0------|--1----0----3----|
--5------0------|--1----1--1--1--1--|--5------0------|--1----0----3----|
--5------0------|--1----1--1--1--1--|--5------0------|--1----0----3----|


  Q    Q    Q       Q    Q    Q       Q    Q    Q       Q    Q    Q      
-----------------|-----------------|-----------------|-----------------||
--8----L----L----|--L----L----L----|--L----L----L----|--L----L----L----||
--7----L----L----|--L----L----L----|--L----L----L----|--L----L----L----||
--5----L----L----|--L----L----L----|--L----L----L----|--L----L----L----||
--5----L----L----|--L----L----L----|--L----L----L----|--L----L----L----||
--5----L----L----|--L----L----L----|--L----L----L----|--L----L----L----||




Duration Legend
---------------
W - whole
H - half
Q - quarter
E - 8th
S - 16th
T - 32nd
X - 64th
. - note dotted
|-n-|  - n-tuplets


Tablature Legend
----------------
L - tied note
x - dead note
g - grace note
(n) - ghost note
> - accentuded note
NH - natural harmonic
AH - artificial harmonic
TH - tapped harmonic
SH - semi harmonic
PH - pitch harmonic
h - hammer on
p - pull off
b - bend
br - bendRelease
pb - preBend
pbr - preBendRelease
brb - bendReleaseBend
\n/ - tremolo bar dip
\n - tremolo bar dive
-/n - tremolo bar Release up
/n\ - tremolo bar inverted dip
/n - tremolo bar return
-\n - tremolo bar Release down
S - shift slide
s - legato slide
/ -  slide into from below or out of upwards
\ -  slide into from above or out of downwards
~ - vibrato
W - wide vibrato
tr - trill
TP - tremolo picking
T - tapping
S - slap
P - pop
< - fade in
^ - brush up
v - brush down
comments
We did not receive enough feedback on this tab! Please rate:
print report bad tab
1 2 3 4 5
I want to post or [tab]
guest
You may want to rate the tab now too:
select rating
Please do not post tabs as comments. Select "correction" instead!