Oops, an error
Loading. Please wait.

Indestructible Tab

ver4
ver4

Album

Solo

Whole song

Video

More versions @911Tabs.com
6,058 views 15 this week
no commentswrite comment
1 2 3 4 5
excellent!
x 3
Autoscroll
+/-
esc
set tempo
stop
Contributor
Hey! There's an official Ultimate Guitar app which is ideal
for learning songs when you're away from computer. Get the app
WARNING: You are trying to view
                                    content from Ultimate-Guitar.com
                                    in an unauthorized application,
                                    which is prohibited.

                                    Please use an official Ultimate
                                    Guitar Tabs application for iPhone,
                                    iPad or Android to access legitimate
                                    chords, guitar, bass, and drum tabs
                                    from Ultimate-Guitar.com database.

                                    Type "ultimate guitar tabs" in Apple
                                    App Store's or Android Market's
                                    search to find the application.
-------------------------------------------------------------------------------
                             INDESTRUCTIBLE - Disturbed
-------------------------------------------------------------------------------
Tabbed by: Robin
Email: robinwickihalter@msn.com

Tuning: Drop C (Drop D, down one whole step)

I saw many different Indestructible Tabs, and they're all inaccurate, so, I
decided to make a new tab. Trust me, it's correct.

Enjoy!

INTRO (Play it twice)
D|-----------------------------------------------------------------------------|
A|-----------------------------------------------------------------------------|
F|-----------------------------------------------------------------------------|
C|-5/7-----7---10-----7-----8-----8--5/7---10---7---8---8-8-8------------------|
G|-3/5-----5---8------5-----6-----6--3/5---8----5---6---6-6-6------------------|
C|-----0-0---0----0-0---0-0---0-0--------0----0---0---0------------------------|
       * *   *    * *   * *   * *        *    *   *   *

D|-----------------------------------------------------------------------------|
A|-----------------------------------------------------------------------------|
F|-----------------------------------------------------------------------------|
C|-5/7-----7---10-----7-----8-----8--5/7---10---7------------------------------|
G|-3/5-----5---8------5-----6-----6--3/5---8----5------------------------------|
C|-----0-0---0----0-0---0-0---0-0--------0----0---0-7-7-7-10-7-----------------|
       * *   *    * *   * *   * *        *    *   *

VERSE (Play it twice)
D|---------------------------------------------------------------------------|
A|---------------------------------------------------------------------------|
F|---------------------------------------------------------------------------|
C|-----------10------------7---------------------10------7-------------------|
G|-----10h12----------8h10-------7h8-5-----10h12----8h10-------7h8---10---8--|
C|-0-0----------0-0-0--------0-0-------0-0-----------------0-0-----0----0----|
   * *          * * *        * *       * *                 * *     *    *

D|---------------------------------------------------------------------------|
A|---------------------------------------------------------------------------|
F|---------------------------------------------------------------------------|
C|-----------10------------7---------------------10------7-------------------|
G|-----10h12----------8h10-------7h8-5-----10h12----8h10-------7h8---10---10-|
C|-0-0----------0-0-0--------0-0-------0-0-----------------0-0-----0----0----|
   * *          * * *        * *       * *                 * *     *    *

PRE-CHORUS
D|---------------------------------------------------------------------------|
A|---------------------------------------------------------------------------|
F|---------------------------------------------------------------------------|
C|-5---5-5-5-5---5-5-5-3---3-3-8---8-8-8-8---8-8-8-7--7-7--------------------|
G|-5---5-5-5-5---5-5-5-3---3-3-8---8-8-8-8---8-8-8-7--7-7--------------------|
C|-5---5-5-5-5---5-5-5-3---3-3-8---8-8-8-8---8-8-8-7--7-7--------------------|

CHORUS
D|---------------------------------------------------------------------------|
A|-3---3-3-------------------------------------------------------------------|
F|-2---2-2-------------------------------------------------------------------|
C|-0---0-0-----7---5/7-----0---0-0-----7---8\7-----1----1-----1--------------|
G|-0---0-0-----5---3/5-----0---0-0-----5---6\5-----1----1-----1--------------|
C|-0---0-0-0-0---0-----0-0-0-0-0-0-0-0---0-----0-0-1----1-----1--------------|
           * *   *     * *   *     * *   *     * *

D|---------------------------------------------------------------------------|
A|-3---3-3-------------------------------------------------------------------|
F|-2---2-2-----------------------------7-------------------------------------|
C|-0---0-0-----7---5/7-----0---0-0-----7---8\7-----1----3-----1--------------|
G|-0---0-0-----5---3/5-----0---0-0-----5---6\5-----1----3-----1--------------|
C|-0---0-0-0-0---0-----0-0-0-0-0-0-0-0---0-----0-0-1----3-----1--------------|
           * *   *     * *   *     * *   *     * *

D|-----------------------------------------------------------------------------|
A|-3---3-3---------------------------------------------------------------------|
F|-2---2-2-----------------------------7---------------------------------------|
C|-0---0-0-----7---5/7-----0---0-0-----7---8\7-----1----1-----1/---------------|
G|-0---0-0-----5---3/5-----0---0-0-----5---6\5-----1----1-----1/---------------|
C|-0---0-0-0-0---0-----0-0-0-0-0-0-0-0---0-----0-0-1----1-----1/---------------|
           * *   *     * *   *     * *   *     * *

D|---------------------------------------------------------------------------|
A|---------------------------------------------------------------------------|
F|---------------------------------------------------------------------------|
C|-8---8-8-8-8---8-8-8-8---8-8-7---8-7-8-7---8-7-8-7-8-7---------------------|
G|-8---8-8-8-8---8-8-8-8---8-8-7---8-7-8-7---8-7-8-7-8-7---------------------|
C|-8---8-8-8-8---8-8-8-8---8-8-7---8-7-8-7---8-7-8-7-8-7---------------------|

D|-----------------------------------------------------------------------------|
A|-----------------------------------------------------------------------------|
F|-----------------------------------------------------------------------------|
C|-5/7-----7---10-----7-----8-----8--5/7---10---7---8---8-8-8------------------|
G|-3/5-----5---8------5-----6-----6--3/5---8----5---6---6-6-6------------------|
C|-----0-0---0----0-0---0-0---0-0--------0----0---0---0------------------------|
       * *   *    * *   * *   * *        *    *   *   *

D|-----------------------------------------------------------------------------|
A|-----------------------------------------------------------------------------|
F|-----------------------------------------------------------------------------|
C|-5/7-----7---10-----7-----8-----8--5/7---10---7------------------------------|
G|-3/5-----5---8------5-----6-----6--3/5---8----5------------------------------|
C|-----0-0---0----0-0---0-0---0-0--------0----0---0-7-7-7-10-7-----------------|
       * *   *    * *   * *   * *        *    *   *

D|---------------------------------------------------------------------------|
A|---------------------------------------------------------------------------|
F|---------------------------------------------------------------------------|
C|-----------10------------7---------------------10------7-------------------|
G|-----10h12----------8h10-------7h8-5-----10h12----8h10-------7h8---10---8--|
C|-0-0----------0-0-0--------0-0-------0-0-----------------0-0-----0----0----|
   * *          * * *        * *       * *                 * *     *    *

D|---------------------------------------------------------------------------|
A|---------------------------------------------------------------------------|
F|---------------------------------------------------------------------------|
C|-----------10------------7---------------------10------7-------------------|
G|-----10h12----------8h10-------7h8-5-----10h12----8h10-------7h8---10---10-|
C|-0-0----------0-0-0--------0-0-------0-0-----------------0-0-----0----0----|
   * *          * * *        * *       * *                 * *     *    *

D|---------------------------------------------------------------------------|
A|---------------------------------------------------------------------------|
F|---------------------------------------------------------------------------|
C|-----------10------------7---------------------10------7-------------------|
G|-----10h12----------8h10-------7h8-5-----10h12----8h10---0-0---------------|
C|-0-0----------0-0-0--------0-0-------0-0-----------------0-0---------------|
   * *          * * *        * *       * *                 * *

D|---------------------------------------------------------------------------|
A|---------------------------------------------------------------------------|
F|---------------------------------------------------------------------------|
C|-5---5-5-5-5---5-5-5-3---3-3-8---8-8-8-8---8-8-8-7--7-7--------------------|
G|-5---5-5-5-5---5-5-5-3---3-3-8---8-8-8-8---8-8-8-7--7-7--------------------|
C|-5---5-5-5-5---5-5-5-3---3-3-8---8-8-8-8---8-8-8-7--7-7--------------------|

D|---------------------------------------------------------------------------|
A|-3---3-3-------------------------------------------------------------------|
F|-2---2-2-------------------------------------------------------------------|
C|-0---0-0-----7---5/7-----0---0-0-----7---8\7-----1----1-----1--------------|
G|-0---0-0-----5---3/5-----0---0-0-----5---6\5-----1----1-----1--------------|
C|-0---0-0-0-0---0-----0-0-0-0-0-0-0-0---0-----0-0-1----1-----1--------------|
           * *   *     * *   *     * *   *     * *

D|---------------------------------------------------------------------------|
A|-3---3-3-------------------------------------------------------------------|
F|-2---2-2-----------------------------7-------------------------------------|
C|-0---0-0-----7---5/7-----0---0-0-----7---8\7-----1----3-----1--------------|
G|-0---0-0-----5---3/5-----0---0-0-----5---6\5-----1----3-----1--------------|
C|-0---0-0-0-0---0-----0-0-0-0-0-0-0-0---0-----0-0-1----3-----1--------------|
           * *   *     * *   *     * *   *     * *

D|-----------------------------------------------------------------------------|
A|-3---3-3---------------------------------------------------------------------|
F|-2---2-2-----------------------------7---------------------------------------|
C|-0---0-0-----7---5/7-----0---0-0-----7---8\7-----1----1-----1/---------------|
G|-0---0-0-----5---3/5-----0---0-0-----5---6\5-----1----1-----1/---------------|
C|-0---0-0-0-0---0-----0-0-0-0-0-0-0-0---0-----0-0-1----1-----1/---------------|
           * *   *     * *   *     * *   *     * *

D|---------------------------------------------------------------------------|
A|---------------------------------------------------------------------------|
F|---------------------------------------------------------------------------|
C|-8---8-8-8-8---8-8-8-8---8-8-7---8-7-8-7---8-7-8-7-8-7---------------------|
G|-8---8-8-8-8---8-8-8-8---8-8-7---8-7-8-7---8-7-8-7-8-7---------------------|
C|-8---8-8-8-8---8-8-8-8---8-8-7---8-7-8-7---8-7-8-7-8-7---------------------|

INTERLUDE
Gtr. 1 (w/ distortion & auto-wah)
D|-----------------------------------------------------------------------------|
A|-----------------------------------------------------------------------------|
F|-----------------------------------------------------------------------------|
C|-10/12-0-0-12-0-15-0-0-12-0-0-13-0-0-13--10/12-0-15-0-12-0-13-0-13-13-13-----|
G|-----------------------------------------------------------------------------|
C|-----------------------------------------------------------------------------|

Gtr. 2
D|---------------------------------------------------------------------------|
A|---------------------------------------------------------------------------|
F|---------------------------------------------------------------------------|
C|-0-------------------------------------------------------------------------|
G|-0---------------------------------------0-0-------------------------------|
C|-0---------------------------------------0-0-------------------------------|
                                           * *

Gtr. 1
D|-----------------------------------------------------------------------------|
A|-----------------------------------------------------------------------------|
F|-----------------------------------------------------------------------------|
C|-10/12-0-0-12-0-15-0-0-12-0-0-13-0-0-13--10/12-0-15-0-12-0-------------------|
G|-----------------------------------------------------------------------------|
C|-----------------------------------------------------------------------------|

Gtr. 2
D|---------------------------------------------------------------------------|
A|---------------------------------------------------------------------------|
F|---------------------------------------------------------------------------|
C|-0-------------------------------------------------------------------------|
G|-0---------------------------------------0-0-------------------------------|
C|-0---------------------------------------0-0---------------7-7-7-10-7------|
                                           * *

D|-----------------------------------------------------------------------------|
A|-----------------------------------------------------------------------------|
F|-----------------------------------------------------------------------------|
C|-5/7-----7---10-----7-----8-----8--5/7---10---7---8---8-8-8------------------|
G|-3/5-----5---8------5-----6-----6--3/5---8----5---6---6-6-6------------------|
C|-----0-0---0----0-0---0-0---0-0--------0----0---0---0------------------------|
       * *   *    * *   * *   * *        *    *   *   *

D|-----------------------------------------------------------------------------|
A|-----------------------------------------------------------------------------|
F|-----------------------------------------------------------------------------|
C|-5/7-----7---10-----7-----8-----8--5/7---10---7------------------------------|
G|-3/5-----5---8------5-----6-----6--3/5---8----5------------------------------|
C|-----0-0---0----0-0---0-0---0-0--------0----0--------------------------------|
       * *   *    * *   * *   * *        *    *

GUITAR SOLO
            grad. bend         grad. release
D|---------------------------------------------------------------------------|
A|---------------------------------------------------------------------------|
F|-5b7r5---(5)b7-----t17----(17)p5---r5p3h5----t22b24r22b24r22---------------|
C|---------------------------------------------------------------------------|
G|---------------------------------------------------------------------------|
C|---------------------------------------------------------------------------|

D|-----------------------------------------------------------------------------|
A|-----------------------------------------------------------------------------|
F|-(22)p5p3p0h5----t9p5p3--t9/10\9p5p3h5--t9p5p3--t9/10\9p5p3--t9p5p3----------|
C|-----------------------------------------------------------------------------|
G|-----------------------------------------------------------------------------|
C|-----------------------------------------------------------------------------|

D|---------------------------------------------------------------------------|
A|---------------------------------------------------------------------------|
F|--------------------------------------9b11r9----------5--------------------|
C|-------------7----8-7-10-8-7-8p7-------------10---5h7---7--7-5-7p5---------|
G|----8-7-10-8---10----------------10-7------------------------------7-------|
C|-/7------------------------------------------------------------------------|
    * * * *  * * *  * * *  * *     *  *

D|-------------------------------------------------------17------------------|
A|-/17--18---17--20---17--18---17--20---17--18---17--20----------------------|
F|---------------------------------------------------------------------------|
C|---------------------------------------------------------------------------|
G|---------------------------------------------------------------------------|
C|---------------------------------------------------------------------------|

Gtr. 1
D|---------------------------------------------------------------------------|
A|-13b15-------r(13)p10--13b15~~~~~-10h13p10---------------------------------|
F|------------------------------------------12b14r12p10----10-12-------------|
C|------------------------------------------------------12-------------------|
G|---------------------------------------------------------------------------|
C|---------------------------------------------------------------------------|

Gtr. 2
D|---------------------------------------------------------------------------|
A|-17b18-------r(17)p15--17b18~~~~-(17)\-------------------------------------|
F|---------------------------------------------------------------------------|
C|---------------------------------------------------------------------------|
G|---------------------------------------------------------------------------|
C|---------------------------------------------------------------------------|

D|---------0h10h13--t15p13p10--t15/16\15p13p10--t15p13--t15p13p10------------|
A|---------------------------------------------------------------------------|
F|-10~~~~~-------------------------------------------------------------------|
C|---------------------------------------------------------------------------|
G|---------------------------------------------------------------------------|
C|---------------------------------------------------------------------------|

                  |-----| This part already is in the chorus
D|--------------------------------------------------------------------------------------|
A|-t15p13p10----------------------------------------------------------------------------|
F|-----------12p10----10----------------------------------------------------------------|
C|-----------------12-------------------------------------------------------------------|
G|--------------------------------------------------------------------------------------|
C|--------------------------------------------------------------------------------------|

AFTER THE CHORUS, PLAY THE VERSE

D|---------------------------------------------------------------|
A|---------------------------------------------------------------|
F|---------------------------------------------------------------|
C|-0----0-0-----0---0-0-----0---0-0------0---0-0---1----1-----1--|
G|-0----0-0-----0---0-0-----0---0-0------0---0-0---1----1-----1--|
C|-0----0-0-----0---0-0-----0---0-0------0---0-0---1----1-----1--|
  Indestructible, determination that is incorruptible...

I'VE ALREADY TABBED THE REST SO CAN FIGURE OUT IT BY YOURSELF

DISTURBED!
comments
We did not receive enough feedback on this tab! Please rate:
print report bad tab
1 2 3 4 5
I want to post or [tab]
guest
You may want to rate the tab now too:
select rating
Please do not post tabs as comments. Select "correction" instead!