Oops, an error
Loading. Please wait.

Overburdened Tab

ver3
ver3

Solo

Whole song

Interactive

More versions @911Tabs.com
2,976 views 1 this week
5 commentsread comments
1 2 3 4 5
worth learning
x 4
Autoscroll
+/-
esc
set tempo
stop
Contributor
Difficulty
Tuning
intermediate
C G C F A D
Hey! There's an official Ultimate Guitar app which is ideal
for learning songs when you're away from computer. Get the app
WARNING: You are trying to view
                                    content from Ultimate-Guitar.com
                                    in an unauthorized application,
                                    which is prohibited.

                                    Please use an official Ultimate
                                    Guitar Tabs application for iPhone,
                                    iPad or Android to access legitimate
                                    chords, guitar, bass, and drum tabs
                                    from Ultimate-Guitar.com database.

                                    Type "ultimate guitar tabs" in Apple
                                    App Store's or Android Market's
                                    search to find the application.
Disturbed: Overburdened

Transcribed by: Andrew Zara (disturbedfreak0520@yahoo.com)

Date last modified: June 11, 2007

PLEASE DO NOT COPY THIS TAB TO ANOTHER SITE
WITHOUT AUTHORS' PERMISSION. THANK YOU.

Tuning: Drop C (C,G,C,F,A,D)

Rhythm Guitar

D||-------|-------|-------|-------|-------|-------|-------|-------|-------|
A||-------|-------|-------|-------|-------|-------|-------|-------|-------|
F||-------|-------|-------|-------|-------|-------|-------|-------|-------|
C||-------|-------|-------|-------|-------|-------|-------|-------|-------|
G||-------|-------|-------|-------|-------|-------|-------|-------|-------|
C||-------|-------|-------|-------|-------|-------|-------|-------|-------|


                                                          W                 
-------|-------|-------|-------|-------|-------|-------|-------------------|
-------|-------|-------|-------|-------|-------|-------|--3----------------|
-------|-------|-------|-------|-------|-------|-------|--2----------------|
-------|-------|-------|-------|-------|-------|-------|--0----------------|
-------|-------|-------|-------|-------|-------|-------|--0----------------|
-------|-------|-------|-------|-------|-------|-------|--0----------------|


                      >  >                                     
  W                   E  E  Q    H           W                 
-------------------|----------------------|-------------------|
--L----------------|----------------------|-------------------|
--L----------------|----------------------|-------------------|
--L----------------|----------------------|-------------------|
--L----------------|----------------------|-------------------|
--L----------------|--0--0----------------|-------------------|


                                          >                 
  W                   W                   W                 
-------------------|-------------------|-------------------|
--3----------------|--L----------------|-------------------|
--2----------------|--L----------------|--5----------------|
--0----------------|--L----------------|--5----------------|
--0----------------|--L----------------|--3----------------|
--0----------------|--L----------------|-------------------|


  >             >             PM PM    PM        PM PM   PM      PM PM  
  H.            Q        Q    E  E  E  Q.        E  Q    E  Q    E  E   
----------------------|-----------------------|------------------------|
----------------------|-----------------------|------------------------|
--2-------------------|--2--------------------|------------------------|
--2-------------------|--0--------------------|------------------------|
--0-------------------|--0--------------------|------------------------|
---------------19\----|--0----0--0--L--0------|--0--0----0--L----0--3--|


  PM   PM PM    PM        PM PM   PM    PM   PM    PM   PM PM    PM      
  Q    E  E  E  Q.        E  Q    E  E  Q    E     Q    E  E  E  Q.      
-----------------------|------------------------|-----------------------|
-----------------------|------------------------|-----------------------|
-----------------------|------------------------|-----------------------|
-----------------------|------------------------|-----------------------|
-----------------------|------------------------|-----------------------|
--0----0--0--L--0------|--0--0----0--L--3----2--|--0----0--0--L--0------|


  PM PM   PM      PM PM    >                   >                 
  E  Q    E  Q    E  E     W                   W                 
------------------------|-------------------|-------------------|
------------------------|-------------------|-------------------|
------------------------|--5----------------|--2----------------|
------------------------|--5----------------|--2----------------|
------------------------|--3----------------|--0----------------|
--0--0----0--L----0--3--|-------------------|-------------------|


       PM PM    PM        PM PM   PM      PM PM    PM   PM PM    PM      
  Q    E  E  E  Q.        E  Q    E  Q    E  E     Q    E  E  E  Q.      
-----------------------|------------------------|-----------------------|
-----------------------|------------------------|-----------------------|
--2--------------------|------------------------|-----------------------|
--0--------------------|------------------------|-----------------------|
--0--------------------|------------------------|-----------------------|
--0----0--0--L--0------|--0--0----0--L----0--3--|--0----0--0--L--0------|


  PM PM   PM    PM   PM    PM   PM PM    PM        PM PM   PM      PM PM  
  E  Q    E  E  Q    E     Q    E  E  E  Q.        E  Q    E  Q    E  E   
------------------------|-----------------------|------------------------|
------------------------|-----------------------|------------------------|
------------------------|-----------------------|------------------------|
------------------------|-----------------------|------------------------|
------------------------|-----------------------|------------------------|
--0--0----0--L--3----2--|--0----0--0--L--0------|--0--0----0--L----0--3--|


  >                   >                                                         
  W                   W                   W                   W                 
-------------------|-------------------|-------------------|-------------------|
-------------------|-------------------|-------------------|-------------------|
--5----------------|--2----------------|-------------------|-------------------|
--5----------------|--2----------------|--8----------------|--L----------------|
--3----------------|--0----------------|--8----------------|--L----------------|
-------------------|-------------------|--8----------------|--L----------------|


  W                   W                   W                   W                 
-------------------|-------------------|-------------------|-------------------|
-------------------|-------------------|-------------------|-------------------|
-------------------|-------------------|-------------------|-------------------|
--7----------------|--L----------------|--8----------------|--L----------------|
--7----------------|--L----------------|--8----------------|--L----------------|
--7----------------|--L----------------|--8----------------|--L----------------|


                                                PM PM                 
  W                   E  E  Q    E  E  E  E     E  E  Q    E  Q.      
-------------------|-------------------------|-----------------------|
-------------------|-------------------------|-----------------------|
--2----------------|--L--x--2----x--2--x--2--|--------2----L---------|
--2----------------|--L--x--2----x--2--x--2--|--------0----L--0------|
--0----------------|--L--x--0----x--0--x--0--|--------0----L--0------|
-------------------|-------------------------|--0--0--0----L--0------|


                           PM PM                                          
  Q.     E  E  E  E  E     E  E  Q    E  Q.        Q.     E  E  E  E  E   
------------------------|-----------------------|------------------------|
------------------------|-----------------------|------------------------|
------------------------|--------2----L---------|------------------------|
--3------3--3--3--3--5--|--------0----L--0------|--3------3--3--3--3--2--|
--3------3--3--3--3--5--|--------0----L--0------|--3------3--3--3--3--2--|
--3------3--3--3--3--5--|--0--0--0----L--0------|--3------3--3--3--3--2--|


  PM PM                                                                      
  E  E  Q    E  Q.        Q.     E  E  E  E  E     E  E  E   E  E  E   Q     
-----------------------|------------------------|---------------------------|
-----------------------|------------------------|---------------------------|
--------2----L---------|------------------------|---------------------------|
--------0----L--0------|--3------3--3--3--3--5--|-----------10-----8--10----|
--------0----L--0------|--3------3--3--3--3--5--|-----8---------8-----10----|
--0--0--0----L--0------|--3------3--3--3--3--5--|--8-----8------------10----|


          PM  PM                                                    
  E   E   E   E  Q    Q       W                   W                 
---------------------------|-------------------|-------------------|
---------------------------|-------------------|-------------------|
---------------------------|-------------------|-------------------|
--L--10----------7----7----|--0----------------|--L----------------|
--L--10----------7----7----|--0----------------|--L----------------|
--L--10--10--10--7----7----|--0----------------|--L----------------|


  PM   PM PM    PM        PM PM   PM    PM   PM    PM   PM PM    PM      
  Q    E  E  E  Q.        E  Q    E  E  Q    E     Q    E  E  E  Q.      
-----------------------|------------------------|-----------------------|
-----------------------|------------------------|-----------------------|
-----------------------|------------------------|-----------------------|
-----------------------|------------------------|-----------------------|
-----------------------|------------------------|-----------------------|
--0----0--0--L--0------|--0--0----0--L--3----2--|--0----0--0--L--0------|


  PM PM   PM    PM   PM                                          
  E  Q    E  E  Q    E     W                   W                 
------------------------|-------------------|-------------------|
------------------------|-------------------|-------------------|
------------------------|--5----------------|--2----------------|
------------------------|--5----------------|--2----------------|
------------------------|--3----------------|--0----------------|
--0--0----0--L--0----3--|-------------------|-------------------|


       PM PM    PM        PM PM   PM      PM PM    PM   PM PM    PM      
  Q    E  E  E  Q.        E  Q    E  Q    E  E     Q    E  E  E  Q.      
-----------------------|------------------------|-----------------------|
-----------------------|------------------------|-----------------------|
--2--------------------|------------------------|-----------------------|
--0--------------------|------------------------|-----------------------|
--0--------------------|------------------------|-----------------------|
--0----0--0--L--0------|--0--0----0--L----0--3--|--0----0--0--L--0------|


  PM PM   PM    PM   PM    PM   PM PM    PM        PM PM   PM      PM PM  
  E  Q    E  E  Q    E     Q    E  E  E  Q.        E  Q    E  Q    E  E   
------------------------|-----------------------|------------------------|
------------------------|-----------------------|------------------------|
------------------------|-----------------------|------------------------|
------------------------|-----------------------|------------------------|
------------------------|-----------------------|------------------------|
--0--0----0--L--3----2--|--0----0--0--L--0------|--0--0----0--L----0--3--|


  >                   >                                           
  W                   W                   E  E  E  E  E  E  Q     
-------------------|-------------------|-------------------------|
-------------------|-------------------|-------------------------|
--5----------------|--2----------------|--7--7--7--7-----7-------|
--5----------------|--2----------------|--7--7--7--7-----7-------|
--3----------------|--0----------------|--5--5--5--5-----5-------|
-------------------|-------------------|-------------------------|


  E  E  E  E  Q    E  E     E  E  E  E  E  E  Q       E  E  E  E  E  E  E  E   
-------------------------|-------------------------|--------------------------|
-------------------------|-------------------------|--------------------------|
--7--7-----7-------7--7--|--7--7--7--7-----7-------|--7--7-----7-----7-----7--|
--7--7-----7-------7--7--|--7--7--7--7-----7-------|--7--7-----7-----7-----7--|
--5--5-----5-------5--5--|--5--5--5--5-----5-------|--5--5-----5-----5-----5--|
-------------------------|-------------------------|--------------------------|


  E  E  E  E  E  E  Q       E  E  E  E  Q    E  E     E  E  E  E  E  E  E  E   
-------------------------|-------------------------|--------------------------|
-------------------------|-------------------------|--------------------------|
--7--7--7--7-----7-------|--7--7-----7-------7--7--|--5--5--5--5--5--5--5--5--|
--7--7--7--7-----7-------|--7--7-----7-------7--7--|--5--5--5--5--5--5--5--5--|
--5--5--5--5-----5-------|--5--5-----5-------5--5--|--3--3--3--3--3--3--3--3--|
-------------------------|-------------------------|--------------------------|


  E  E  E  E  E  E  E  E     W                   W                 
--------------------------|-------------------|-------------------|
--------------------------|-------------------|-------------------|
--2--2--2--2--2--2--2--2--|-------------------|-------------------|
--2--2--2--2--2--2--2--2--|--8----------------|--L----------------|
--0--0--0--0--0--0--0--0--|--8----------------|--L----------------|
--------------------------|--8----------------|--L----------------|


  W                   W                   W                   W                 
-------------------|-------------------|-------------------|-------------------|
-------------------|-------------------|-------------------|-------------------|
-------------------|-------------------|-------------------|-------------------|
--7----------------|--L----------------|--8----------------|--L----------------|
--7----------------|--L----------------|--8----------------|--L----------------|
--7----------------|--L----------------|--8----------------|--L----------------|


                                                PM PM                 
  W                   E  E  Q    E  E  E  E     E  E  Q    E  Q.      
-------------------|-------------------------|-----------------------|
-------------------|-------------------------|-----------------------|
--2----------------|--L--x--2----x--2--x--2--|--------2----L---------|
--2----------------|--L--x--2----x--2--x--2--|--------0----L--0------|
--0----------------|--L--x--0----x--0--x--0--|--------0----L--0------|
-------------------|-------------------------|--0--0--0----L--0------|


                           PM PM                                          
  Q.     E  E  E  E  E     E  E  Q    E  Q.        Q.     E  E  E  E  E   
------------------------|-----------------------|------------------------|
------------------------|-----------------------|------------------------|
------------------------|--------2----L---------|------------------------|
--3------3--3--3--3--5--|--------0----L--0------|--3------3--3--3--3--2--|
--3------3--3--3--3--5--|--------0----L--0------|--3------3--3--3--3--2--|
--3------3--3--3--3--5--|--0--0--0----L--0------|--3------3--3--3--3--2--|


  PM PM                                                                      
  E  E  Q    E  Q.        Q.     E  E  E  E  E     E  E  E   E  E  E   Q     
-----------------------|------------------------|---------------------------|
-----------------------|------------------------|---------------------------|
--------2----L---------|------------------------|---------------------------|
--------0----L--0------|--3------3--3--3--3--5--|-----------10-----8--10----|
--------0----L--0------|--3------3--3--3--3--5--|-----8---------8-----10----|
--0--0--0----L--0------|--3------3--3--3--3--5--|--8-----8------------10----|


          PM  PM                                        
  E   E   E   E  Q    Q       E  E  E   E  E  E  E  E   
---------------------------|---------------------------|
---------------------------|---------------------------|
---------------------------|---------------------------|
--L--10----------7----7----|-----------10-----8-----8--|
--L--10----------7----7----|-----8---------8-----8-----|
--L--10--10--10--7----7----|--8-----8------------------|


                       >     PM PM                                          
  E  E  E  E  E  E  E  E     E  E  Q    E  Q.        Q.     E  E  E  E  E   
--------------------------|-----------------------|------------------------|
--------------------------|-----------------------|------------------------|
--------------------------|--------2----L---------|------------------------|
-----------8-----7--------|--------0----L--0------|--3------3--3--3--3--5--|
-----7--------7-----7-----|--------0----L--0------|--3------3--3--3--3--5--|
--7-----7--------------1--|--0--0--0----L--0------|--3------3--3--3--3--5--|


  PM PM                                            PM PM                 
  E  E  Q    E  Q.        Q.     E  E  E  E  E     E  E  Q    E  Q.      
-----------------------|------------------------|-----------------------|
-----------------------|------------------------|-----------------------|
--------2----L---------|------------------------|--------2----L---------|
--------0----L--0------|--3------3--3--3--3--2--|--------0----L--0------|
--------0----L--0------|--3------3--3--3--3--2--|--------0----L--0------|
--0--0--0----L--0------|--3------3--3--3--3--2--|--0--0--0----L--0------|


  Q.     E  E  E  E  E     E  E  E   E  E  E   Q     
------------------------|---------------------------|
------------------------|---------------------------|
------------------------|---------------------------|
--3------3--3--3--3--5--|-----------10-----8--10----|
--3------3--3--3--3--5--|-----8---------8-----10----|
--3------3--3--3--3--5--|--8-----8------------10----|


          PM  PM              PM PM PM PM PM PM    PM PM PM PM  
  E   E   E   E  Q    Q       S  S  E  E  S  S  E  E  S  S  E   
---------------------------|-----------------------------------|
---------------------------|-----------------------------------|
---------------------------|-----------------------------------|
--L--10----------7----7----|-----------------------------------|
--L--10----------7----7----|-----------------------------------|
--L--10--10--10--7----7----|--0--0--0--0--0--0--L--0--0--0--0--|


  PM PM PM PM PM PM PM PM PM PM PM    PM PM PM PM PM PM PM PM PM PM PM  
  E  S  S  E  E  S  S  E  S  S  E     S  S  E  E  S  S  E  E  S  S  E   
-----------------------------------|-----------------------------------|
-----------------------------------|-----------------------------------|
-----------------------------------|-----------------------------------|
-----------------------------------|-----------------------------------|
-----------------------------------|-----------------------------------|
--0--0--0--0--0--0--0--0--0--0--0--|--0--0--0--0--0--0--0--0--0--0--0--|


  PM PM PM PM PM PM PM PM PM PM PM                             
  E  S  S  E  E  S  S  E  S  S  E     E  E  E  E  E  E  E  E   
-----------------------------------|--------------------------|
-----------------------------------|--------------------------|
-----------------------------------|--------------------------|
-----------------------------------|--8--8--8--8--8--8--8--8--|
-----------------------------------|--5--5--5--5--5--5--5--5--|
--0--0--0--0--0--0--0--0--0--0--0--|--5--5--5--5--5--5--5--5--|


  E  E  E  E  E  E  E  E     E  E  E  E  E  E  E  E   
--------------------------|--------------------------|
--------------------------|--------------------------|
--------------------------|--------------------------|
--8--8--8--8--8--8--8--8--|--7--7--7--7--7--7--7--7--|
--7--7--7--8--8--8--5--5--|--6--6--6--6--6--6--6--6--|
--7--7--7--8--8--8--------|--------------------------|


   E   E   E  E  E  E  E  E     E  E  E  E  E  E  E  E   
-----------------------------|--------------------------|
-----------------------------|--------------------------|
-----------------------------|--------------------------|
-----------------------------|--8--8--8--8--8--8--8--8--|
--10--10--10--8--8--8--7--7--|--5--5--5--5--5--5--5--5--|
--10--10--10--8--8--8--7--7--|--5--5--5--5--5--5--5--5--|


  E  E  E  E  E  E  E  E     E  E  E  E  E  E  E  E   
--------------------------|--------------------------|
--------------------------|--------------------------|
--------------------------|--------------------------|
--8--8--8--8--8--8--3--3--|--1--1--1--3--3--3--1--1--|
--7--7--7--8--8--8--3--3--|--1--1--1--1--1--1--1--1--|
--7--7--7--8--8--8--3--3--|--1--1--1--1--1--1--1--1--|


  E  E  E  E  E  E  E  E     E  E  E  E  E  E  E  E   
--------------------------|--------------------------|
--------------------------|--------------------------|
--------------------------|--------------------------|
--3--3--3--8--8--8--7--7--|--8--8--8--8--8--8--8--8--|
--3--3--3--8--8--8--7--7--|--5--5--5--5--5--5--5--5--|
--3--3--3--8--8--8--7--7--|--5--5--5--5--5--5--5--5--|


  E  E  E  E  E  E  E  E     E  E  E  E  E  E  E  E   
--------------------------|--------------------------|
--------------------------|--------------------------|
--------------------------|--------------------------|
--8--8--8--8--8--8--8--8--|--7--7--7--7--7--7--7--7--|
--7--7--7--8--8--8--5--5--|--6--6--6--6--6--6--6--6--|
--7--7--7--8--8--8--------|--------------------------|


                                PM PM PM PM PM PM PM PM  
   E   E   E  E  E  E  E  E     E  E  E  E  E  E  E  E   
-----------------------------|--------------------------|
-----------------------------|--------------------------|
-----------------------------|--------------------------|
-----------------------------|--------------------------|
--10--10--10--8--8--8--7--7--|--5--5--5--5--5--3--3--3--|
--10--10--10--8--8--8--7--7--|--5--5--5--5--5--3--3--3--|


  PM PM PM PM PM PM PM PM    PM PM PM PM PM PM PM PM  
  E  E  E  E  E  E  E  E     E  E  E  E  E  E  E  E   
--------------------------|--------------------------|
--------------------------|--------------------------|
--------------------------|--------------------------|
--------------------------|--------------------------|
--3--5--5--5--5--3--3--3--|--5--5--5--5--5--3--3--3--|
--3--5--5--5--5--3--3--3--|--5--5--5--5--5--3--3--3--|


  PM PM PM PM PM PM PM PM PM PM    PM PM                 
              |--3--|  |--3--|                           
  E  E  E  E  E  E  E  E  E  E     E  E  Q    E  Q.      
--------------------------------|-----------------------|
--------------------------------|-----------------------|
--------------------------------|--------2----L---------|
--------------------------------|--------0----L--0------|
--3--5--5--5--5--5--5--5--5--5--|--------0----L--0------|
--3--5--5--5--5--5--5--5--5--5--|--0--0--0----L--0------|


                           PM PM                                          
  Q.     E  E  E  E  E     E  E  Q    E  Q.        Q.     E  E  E  E  E   
------------------------|-----------------------|------------------------|
------------------------|-----------------------|------------------------|
------------------------|--------2----L---------|------------------------|
--3------3--3--3--3--5--|--------0----L--0------|--3------3--3--3--3--2--|
--3------3--3--3--3--5--|--------0----L--0------|--3------3--3--3--3--2--|
--3------3--3--3--3--5--|--0--0--0----L--0------|--3------3--3--3--3--2--|


  PM PM                                                                     
  E  E  Q    E  Q.        Q.     E  E  E  E  E     E  E  E  E  E  E  E  E   
-----------------------|------------------------|--------------------------|
-----------------------|------------------------|--------------------------|
--------2----L---------|------------------------|--------------------------|
--------0----L--0------|--3------3--3--3--3--5--|--8--8--8--8--8--8--8--8--|
--------0----L--0------|--3------3--3--3--3--5--|--8--8--8--8--8--8--8--8--|
--0--0--0----L--0------|--3------3--3--3--3--5--|--8--8--8--8--8--8--8--8--|


                    >                                        
  E  E  E  E  E  E  Q        E   E   E   E   E   E   E   E   
-------------------------|--13------12--------------13--12--|
-------------------------|------------------13--------------|
-------------------------|------14------14------14----------|
--7--7--7--7--7--7-------|----------------------------------|
--7--7--7--7--7--7-------|----------------------------------|
--7--7--7--7--7--7--1----|----------------------------------|


   E   E   E   E   E   E   E   E      E   E   E   E   E   E   E   E   
--------------13------12----------|----------------------------------|
------13----------------------15--|----------13----------15----------|
--14------14------14------14------|--12--14------14--12------12--14--|
----------------------------------|----------------------------------|
----------------------------------|----------------------------------|
----------------------------------|----------------------------------|


   E   E   E   E   E   E   E   E     Q     Q    H                     
----------------------------------|----------------------|-----------|
--13----------15------13----------|----------------------|-----------|
------14--12------12------12--14--|--L\------------------|-----------|
----------------------------------|----------------------|-----------|
----------------------------------|----------------------|-----------|
----------------------------------|----------------------|-----------|


                                                        PM PM                 
  E  E  E  E  E  E  E  E     E  E  E  E  E  E  E  E     E  E  Q    E  Q.      
--------------------------|--------------------------|-----------------------|
--------------------------|--------------------------|-----------------------|
--------------------5--5--|--5--5--5--5--2--2--2--2--|--------2----L---------|
--8--8--8--8--8--8--5--5--|--5--5--5--5--2--2--2--2--|--------0----L--0------|
--8--8--8--8--8--8--3--3--|--3--3--3--3--0--0--0--0--|--------0----L--0------|
--8--8--8--8--8--8--------|--------------------------|--0--0--0----L--0------|


                           PM PM                                          
  Q.     E  E  E  E  E     E  E  Q    E  Q.        Q.     E  E  E  E  E   
------------------------|-----------------------|------------------------|
------------------------|-----------------------|------------------------|
------------------------|--------2----L---------|------------------------|
--3------3--3--3--3--5--|--------0----L--0------|--3------3--3--3--3--2--|
--3------3--3--3--3--5--|--------0----L--0------|--3------3--3--3--3--2--|
--3------3--3--3--3--5--|--0--0--0----L--0------|--3------3--3--3--3--2--|


  PM PM                                                                      
  E  E  Q    E  Q.        Q.     E  E  E  E  E     E  E  E   E  E  E  E  E   
-----------------------|------------------------|---------------------------|
-----------------------|------------------------|---------------------------|
--------2----L---------|------------------------|---------------------------|
--------0----L--0------|--3------3--3--3--3--5--|-----------10-----8-----8--|
--------0----L--0------|--3------3--3--3--3--5--|-----8---------8-----8-----|
--0--0--0----L--0------|--3------3--3--3--3--5--|--8-----8------------------|


                       >     PM PM                                          
  E  E  E  E  E  E  E  E     E  E  Q    E  Q.        Q.     E  E  E  E  E   
--------------------------|-----------------------|------------------------|
--------------------------|-----------------------|------------------------|
--------------------------|--------2----L---------|------------------------|
-----------8-----7--------|--------0----L--0------|--3------3--3--3--3--5--|
-----7--------7-----7-----|--------0----L--0------|--3------3--3--3--3--5--|
--7-----7--------------1--|--0--0--0----L--0------|--3------3--3--3--3--5--|


  PM PM                                            PM PM                 
  E  E  Q    E  Q.        Q.     E  E  E  E  E     E  E  Q    E  Q.      
-----------------------|------------------------|-----------------------|
-----------------------|------------------------|-----------------------|
--------2----L---------|------------------------|--------2----L---------|
--------0----L--0------|--3------3--3--3--3--2--|--------0----L--0------|
--------0----L--0------|--3------3--3--3--3--2--|--------0----L--0------|
--0--0--0----L--0------|--3------3--3--3--3--2--|--0--0--0----L--0------|


  Q.     E  E  E  E  E     E  E  E   E  E  E   Q     
------------------------|---------------------------|
------------------------|---------------------------|
------------------------|---------------------------|
--3------3--3--3--3--5--|-----------10-----8--10----|
--3------3--3--3--3--5--|-----8---------8-----10----|
--3------3--3--3--3--5--|--8-----8------------10----|


          PM  PM                                                     
  E   E   E   E  E  E  Q       W                   W                 
----------------------------|-------------------|-------------------|
----------------------------|-------------------|-------------------|
----------------------------|-------------------|-------------------|
--L--10----------7--7--7----|-------------------|-------------------|
--L--10----------7--7--7----|-------------------|-------------------|
--L--10--10--10--7--7--7----|--0----------------|--L----------------|


  W                   W                   W                   W                 
-------------------|-------------------|-------------------|-------------------|
-------------------|-------------------|-------------------|-------------------|
-------------------|-------------------|-------------------|-------------------|
-------------------|-------------------|-------------------|-------------------|
-------------------|-------------------|-------------------|-------------------|
--L----------------|--L----------------|--L----------------|--L----------------|


                                          <                 
  W                   W                   W                 
-------------------|-------------------|-------------------|
-------------------|-------------------|-------------------|
-------------------|-------------------|-------------------|
-------------------|-------------------|-------------------|
-------------------|-------------------|-------------------|
--L----------------|--L----------------|--0----------------|


  W                  
-------------------||
-------------------||
-------------------||
-------------------||
-------------------||
--L----------------||

***************************************
***************************************
***************************************

Lead Guitar


     H        E   E     Q       Q     Q        Q        Q     
D||--------------------------|-------------------------------|
A||--------------------------|-------------------------------|
F||------------------9g10----|--L----------10g12----10g12----|
C||--------------12----------|-------12----------------------|
G||--------------------------|-------------------------------|
C||--------------------------|-------------------------------|


   W                   H        H           E      E   S  S  E  H         
--------------------|--------------------|-------------------------------|
--------------------|--------------------|-----10g11--10-----------------|
--10----------------|--L-----------------|---------------10--------------|
--------------------|--------------------|------------------12--L--------|
--------------------|--------------------|-------------------------------|
--------------------|--------------------|-------------------------------|


  H         H           E      Q.     Q.      E      E  Q.     H         
---------------------|---------------------------|----------------------|
---------------------|---------------------------|----------------------|
---------------------|-----12g14------L----------|--10--9------L--------|
--L--------10--------|--L--------------------12--|----------------------|
---------------------|---------------------------|----------------------|
---------------------|---------------------------|----------------------|


   H        Q    E.   S     S   E.  Q    E    E   E   E   
------------------------|-------------------/17--15--13--|
--15--------L----L------|--15p-13---L----L---------------|
---------------------14-|--------------------------------|
------------------------|--------------------------------|
------------------------|--------------------------------|
------------------------|--------------------------------|


   E   Q.     Q     E   E     H         H         
--12-----------------------|---------------------|
---------------------------|---------------------|
------14------L----10--12--|--L------------------|
---------------------------|-----------12--------|
---------------------------|---------------------|
---------------------------|---------------------|


  E   E   E   E   S  E.  Q       E   E   S  E.  E   T   T   T  T  E   E   
------------------------------|------------------------------------------|
--------------------13---L----|--L------10-13---L------------------------|
---------10--10--12-----------|-----12-------------13p-12p-10----12--10--|
-----12-----------------------|-------------------------------12---------|
------------------------------|------------------------------------------|
------------------------------|------------------------------------------|


  W                   W                   Q     Q    E  Q    E   
-------------------|-------------------|------------------------|
-------------------|-------------------|------------------------|
--9----------------|--L----------------|------------------------|
-------------------|-------------------|------------------------|
-------------------|-------------------|-------12----L--8-------|
-------------------|-------------------|--0----------0-------0--|


   Q.      E  E  Q     E     Q     Q    E  Q    E      Q.      E  E  Q    E   
--------------------------|------------------------|-------------------------|
--------------------------|------------------------|-------------------------|
--------------------------|------------------------|-------------------------|
-----------------8--------|------------------------|-------------------------|
--10------10--L-------10--|-------12----L--8-------|--10------10--L--7----7--|
---L----------------------|--0----------0-------0--|---L---------------------|


  Q     Q    E  Q    E      Q.      E  E  Q     E   
------------------------|--------------------------|
------------------------|--------------------------|
------------------------|--------------------------|
------------------------|-----------------8--------|
-------12----L--8-------|--10------10--L-------10--|
--0----------0-------0--|---L----------------------|


   E  E   E  E   E  E   E  E      E  E   E  E   E  E   E  E                     
------------------------------|------------------------------|-----|-----|-----|
------------------------------|------------------------------|-----|-----|-----|
------------------------------|------------------------------|-----|-----|-----|
------------------------------|------------------------------|-----|-----|-----|
------7------7------7------7--|------7------7------7------7--|-----|-----|-----|
--10-----10-----10-----10-----|--11-----11-----11-----11-----|-----|-----|-----|


-----|-----|-----|-----|-----|-----|-----|-----|-----|-----|-----|-----|-----|
-----|-----|-----|-----|-----|-----|-----|-----|-----|-----|-----|-----|-----|
-----|-----|-----|-----|-----|-----|-----|-----|-----|-----|-----|-----|-----|
-----|-----|-----|-----|-----|-----|-----|-----|-----|-----|-----|-----|-----|
-----|-----|-----|-----|-----|-----|-----|-----|-----|-----|-----|-----|-----|
-----|-----|-----|-----|-----|-----|-----|-----|-----|-----|-----|-----|-----|


  E  E  E  E  E  E  E  E     E  E  E  E  E  E  E  E   
--------------------------|--------------------------|
--------------------------|--------------------------|
--------------------------|--------------------------|
-----7-----5--------------|-----7-----5--------------|
-----------------5-----7--|-----------------5-----7--|
--8-----8-----8-----8-----|--8-----8-----8-----8-----|


  E  E  E  E  E  E  E  E     E  E  E  E  E  E  E  E   
--------------------------|--------------------------|
--------------------------|--------------------------|
--------------------------|--------------------------|
-----7-----5--------------|-----7-----5--------------|
-----------------5-----7--|-----------------5-----7--|
--7-----7-----7-----7-----|--7-----7-----7-----7-----|


  E  E  E  E  E  E  E  E     E  E  E  E  E  E  E  E   
--------------------------|--------------------------|
--------------------------|--------------------------|
--------------------------|--------------------------|
-----7-----5--------------|-----7-----5--------------|
-----------------5-----7--|-----------------5-----7--|
--8-----8-----8-----8-----|--8-----8-----8-----8-----|


  E  E  E  E  E  E  E  E     E  E  E  E  E  E  E  E                           
--------------------------|--------------------------|-----|-----|-----|-----|
--------------------------|--------------------------|-----|-----|-----|-----|
--------------------------|--------------------------|-----|-----|-----|-----|
-----7-----5--------------|-----7-----5--------------|-----|-----|-----|-----|
-----------------5-----7--|-----------------5-----7--|-----|-----|-----|-----|
--7-----7-----7-----7-----|--7-----7-----7-----7-----|-----|-----|-----|-----|


-----|-----|-----|-----|-----|-----|-----|-----|-----|-----|-----|-----|
-----|-----|-----|-----|-----|-----|-----|-----|-----|-----|-----|-----|
-----|-----|-----|-----|-----|-----|-----|-----|-----|-----|-----|-----|
-----|-----|-----|-----|-----|-----|-----|-----|-----|-----|-----|-----|
-----|-----|-----|-----|-----|-----|-----|-----|-----|-----|-----|-----|
-----|-----|-----|-----|-----|-----|-----|-----|-----|-----|-----|-----|


   E   E   E   E  E   E   E   E      E   E  E   E   E   E   E   E   
---------------------------------|---------------------------------|
---------------------------------|---------------------------------|
--------------10-----------------|--12--12-----12--------------10--|
--12--10--12-------------12--10--|-----------------12--10--12------|
---------------------12----------|--10--10-----10------------------|
---------------------------------|---------------------------------|


   E   E   E   E  E   E   E   E      E   E  E   E   E   E   E   E   
---------------------------------|---------------------------------|
---------------------------------|---------------------------------|
--------------10-----------------|--12--12-----12--------------10--|
--12--10--12-------------12--10--|-----------------12--10--12------|
---------------------12----------|--10--10-----10------------------|
---------------------------------|---------------------------------|


   E   E   E   E  E   E   E   E      E   E  E   E   E   E   E   E   
---------------------------------|---------------------------------|
---------------------------------|---------------------------------|
--------------10-----------------|--12--12-----12--------------10--|
--12--10--12-------------12--10--|-----------------12--10--12------|
---------------------12----------|--10--10-----10------------------|
---------------------------------|---------------------------------|


   E   E   E   E   E   E   E   E      E   E   E   E   E   E  E   E   
----------------------------------|---------------------------------|
----------------------------------|---------------------------------|
----------------------------------|---------------------------------|
--12--10------10------10----------|---------------------------------|
----------10------10------10--12--|--10--12--10--12--13------8--10--|
----------------------------------|----------------------12---------|


   E   E   E   E  E   E   E   E      E   E  E   E   E   E   E   E   
---------------------------------|---------------------------------|
---------------------------------|---------------------------------|
--------------10-----------------|--12--12-----12--------------10--|
--12--10--12-------------12--10--|-----------------12--10--12------|
---------------------12----------|--10--10-----10------------------|
---------------------------------|---------------------------------|


   E   E   E   E  E   E   E   E      E   E  E   E   E   E   E   E   
---------------------------------|---------------------------------|
---------------------------------|---------------------------------|
--------------10-----------------|--12--12-----12--------------10--|
--12--10--12-------------12--10--|-----------------12--10--12------|
---------------------12----------|--10--10-----10------------------|
---------------------------------|---------------------------------|


   E   E   E   E  E   E   E   E      E   E  E   E   E   E   E   E   
---------------------------------|---------------------------------|
---------------------------------|---------------------------------|
--------------10-----------------|--12--12-----12--------------10--|
--12--10--12-------------12--10--|-----------------12--10--12------|
---------------------12----------|--10--10-----10------------------|
---------------------------------|---------------------------------|


   E   E   E   E   E   E   E   E      E   E   E   E   E   E  E   E   
----------------------------------|---------------------------------|
----------------------------------|---------------------------------|
----------------------------------|---------------------------------|
--12--10------10------10----------|---------------------------------|
----------10------10------10--12--|--10--12--10--12--13------8--10--|
----------------------------------|----------------------12---------|


  E  E  E  E  E  E  E  E     E  E  E  E  E  E  E  E   
--------------------------|--------------------------|
--------------------------|--------------------------|
--------------------------|--------------------------|
-----7-----5--------------|-----7-----5--------------|
-----------------5-----7--|-----------------5-----7--|
--8-----8-----8-----8-----|--8-----8-----8-----8-----|


  E  E  E  E  E  E  E  E     E  E  E  E  E  E  E  E   
--------------------------|--------------------------|
--------------------------|--------------------------|
--------------------------|--------------------------|
-----7-----5--------------|-----7-----5--------------|
-----------------5-----7--|-----------------5-----7--|
--7-----7-----7-----7-----|--7-----7-----7-----7-----|


  E  E  E  E  E  E  E  E     E  E  E  E  E  E  E  E   
--------------------------|--------------------------|
--------------------------|--------------------------|
--------------------------|--------------------------|
-----7-----5--------------|-----7-----5--------------|
-----------------5-----7--|-----------------5-----7--|
--8-----8-----8-----8-----|--8-----8-----8-----8-----|


  E  E  E  E  E  E  E  E     E  E  E  E  E  E  E  E                           
--------------------------|--------------------------|-----|-----|-----|-----|
--------------------------|--------------------------|-----|-----|-----|-----|
--------------------------|--------------------------|-----|-----|-----|-----|
-----7-----5--------------|-----7-----5--------------|-----|-----|-----|-----|
-----------------5-----7--|-----------------5-----7--|-----|-----|-----|-----|
--7-----7-----7-----7-----|--7-----7-----7-----7-----|-----|-----|-----|-----|


-----|-----|-----|-----|-----|-----|-----|-----|-----|-----|-----|-----|-----|
-----|-----|-----|-----|-----|-----|-----|-----|-----|-----|-----|-----|-----|
-----|-----|-----|-----|-----|-----|-----|-----|-----|-----|-----|-----|-----|
-----|-----|-----|-----|-----|-----|-----|-----|-----|-----|-----|-----|-----|
-----|-----|-----|-----|-----|-----|-----|-----|-----|-----|-----|-----|-----|
-----|-----|-----|-----|-----|-----|-----|-----|-----|-----|-----|-----|-----|


-----|-----|-----|-----|-----|-----|-----|-----|-----|-----|-----|-----|-----|
-----|-----|-----|-----|-----|-----|-----|-----|-----|-----|-----|-----|-----|
-----|-----|-----|-----|-----|-----|-----|-----|-----|-----|-----|-----|-----|
-----|-----|-----|-----|-----|-----|-----|-----|-----|-----|-----|-----|-----|
-----|-----|-----|-----|-----|-----|-----|-----|-----|-----|-----|-----|-----|
-----|-----|-----|-----|-----|-----|-----|-----|-----|-----|-----|-----|-----|


                                                  Q     E    E  E   Q     E   
-----|-----|-----|-----|-----|-----|-----|-----|-----------------------------|
-----|-----|-----|-----|-----|-----|-----|-----|-------13br--L--L--10----13--|
-----|-----|-----|-----|-----|-----|-----|-----|-----------------------------|
-----|-----|-----|-----|-----|-----|-----|-----|-----------------------------|
-----|-----|-----|-----|-----|-----|-----|-----|-----------------------------|
-----|-----|-----|-----|-----|-----|-----|-----|-----------------------------|


   E    Q     E  E   E   E   E      Q     E    E   E   Q     E     
--------------------------------|---------------------------------|
--15br--L-----------------------|--------13br--L---L--10----------|
-------------14--L------10--12--|--10-----------------------12br--|
--------------------12----------|---------------------------------|
--------------------------------|---------------------------------|
--------------------------------|---------------------------------|


  Q.     S  S  E    E  S  S  E     S   S  S  S E  S   S  S  S E  S   S  S  S  
--------------------------------|--------------------------------------------|
--------------------------------|--------------------------------------------|
--L------L-10-12br--L--L-10-----|--9h-10p-9----9--9h-10p-9----9--9h-10p-9----|
----------------------------12--|-----------12-------------12-------------12-|
--------------------------------|--------------------------------------------|
--------------------------------|--------------------------------------------|


                    |---6---|  |-6-|   |---6---|  |---6--|  
  E  S   S  S  S E  S   S   S  S   E   S   S   S  S   S  S  
-----------------------------------------------------------|
------------------------------10h-11--13p-11p-10-----------|
--9--9h-10p-9----9--9h-10h-12--------------------12p-10p-9-|
--------------12-------------------------------------------|
-----------------------------------------------------------|
-----------------------------------------------------------|


  S   E.  S S E  E  E  E  E     Q      S S E  Q.         E   
-----------------------------|------------------------------|
-----------------------------|------------------------------|
--7br-L---L-5----5--7--5--7--|--7br----L-5----5------10g14--|
--------------7--------------|-------------7----------------|
-----------------------------|------------------------------|
-----------------------------|------------------------------|


  PM PM                                            PM PM                 
  E  E  Q    E  Q.        Q.     E  E  E  E  E     E  E  Q    E  Q.      
-----------------------|------------------------|-----------------------|
-----------------------|------------------------|-----------------------|
--------2----L---------|------------------------|--------2----L---------|
--------0----L--0------|--3------3--3--3--3--5--|--------0----L--0------|
--------0----L--0------|--3------3--3--3--3--5--|--------0----L--0------|
--0--0--0----L--0------|--3------3--3--3--3--5--|--0--0--0----L--0------|


  Q.     E  E  E  E  E     Q     H          E   E      
------------------------|-----------------------------|
------------------------|-------13br--------L--13pbr--|
------------------------|-----------------------------|
--3------3--3--3--3--2--|-----------------------------|
--3------3--3--3--3--2--|-----------------------------|
--3------3--3--3--3--2--|-----------------------------|


  Q     E   E  E   E   E   E      Q      E   E   E    E   E   E   
-------10-------------10--12--|--12b----12--10---------------10--|
--L--------10--L--10----------|-----------------13p--10--13------|
------------------------------|----------------------------------|
------------------------------|----------------------------------|
------------------------------|----------------------------------|
------------------------------|----------------------------------|


   S  S  S  S  S  S  S  S  S  S  S  S  Q         W                  
--10p-8----12p-8----10p-8----10p-8----10b----|--10~----------------|
--------10-------10-------10-------10--------|---------------------|
---------------------------------------------|---------------------|
---------------------------------------------|---------------------|
---------------------------------------------|---------------------|
---------------------------------------------|---------------------|


-------------------|-------------------|-------------------|-------------------|
-------------------|-------------------|-------------------|-------------------|
-------------------|-------------------|-------------------|-------------------|
-------------------|-------------------|-------------------|-------------------|
-------------------|-------------------|-------------------|-------------------|
-------------------|-------------------|-------------------|-------------------|


-------------------|-------------------|-------------------|-------------------|
-------------------|-------------------|-------------------|-------------------|
-------------------|-------------------|-------------------|-------------------|
-------------------|-------------------|-------------------|-------------------|
-------------------|-------------------|-------------------|-------------------|
-------------------|-------------------|-------------------|-------------------|


-------------------|-------------------|-------------------|-------------------|
-------------------|-------------------|-------------------|-------------------|
-------------------|-------------------|-------------------|-------------------|
-------------------|-------------------|-------------------|-------------------|
-------------------|-------------------|-------------------|-------------------|
-------------------|-------------------|-------------------|-------------------|


-------------------|-------------------|-------------------|
-------------------|-------------------|-------------------|
-------------------|-------------------|-------------------|
-------------------|-------------------|-------------------|
-------------------|-------------------|-------------------|
-------------------|-------------------|-------------------|


  Q     Q    E  Q    E      Q.      E  E  Q     E     Q     Q    E  Q    E   
------------------------|--------------------------|------------------------|
------------------------|--------------------------|------------------------|
-------10-------7-------|--------------------------|-------10-------7-------|
------------------------|-----------------8--------|------------------------|
-------12----L--8-------|--10------10--L-------10--|-------12----L--8-------|
--0----------0-------0--|---L----------------------|--0----------0-------0--|


   Q.      E  E  Q    E     Q     Q    E  Q    E      Q.      E  E  Q     E   
-------------------------|------------------------|--------------------------|
-------------------------|------------------------|--------------------------|
-------------------------|-------10-------7-------|---9-------------7----10--|
-------------------------|------------------------|----------10-----8--------|
--10------10--L--7----7--|-------12----L--8-------|--10------10--L-------12--|
---L---------------------|--0----------0-------0--|---L----------------------|


  Q     Q    E  Q    E      Q.      E  E   Q     E      W                 
------------------------|----------------------------|-------------------|
------------------------|----------------------------|-------------------|
-------10-------7-------|---9------------------------|-------------------|
------------------------|----------10--L--10----10---|-------------------|
-------12----L--8-------|--10------10--L--10----10s--|--5----------------|
--0----------0-------0--|----------------------------|-------------------|


  W                  
-------------------||
-------------------||
-------------------||
-------------------||
--L----------------||
-------------------||



Duration Legend
---------------
W - whole
H - half
Q - quarter
E - 8th
S - 16th
T - 32nd
X - 64th
. - note dotted
|-n-|  - n-tuplets


Tablature Legend
----------------
L - tied note
x - dead note
g - grace note
(n) - ghost note
> - accentuded note
NH - natural harmonic
AH - artificial harmonic
TH - tapped harmonic
SH - semi harmonic
PH - pitch harmonic
h - hammer on
p - pull off
b - bend
br - bendRelease
pb - preBend
pbr - preBendRelease
brb - bendReleaseBend
\n/ - tremolo bar dip
\n - tremolo bar dive
-/n - tremolo bar Release up
/n\ - tremolo bar inverted dip
/n - tremolo bar return
-\n - tremolo bar Release down
S - shift slide
s - legato slide
/ -  slide into from below or out of upwards
\ -  slide into from above or out of downwards
~ - vibrato
W - wide vibrato
tr - trill
TP - tremolo picking
T - tapping
S - slap
P - pop
< - fade in
^ - brush up
v - brush down
comments
print report bad tab
5 comments total. Showing first comments.
0 reply
irishmatt1992 wrote on June 12 2007, 06:14 pm

Since most of it is from MY GP5, I have to give it a good grade.

0 reply
Logan_B wrote on February 17 2008, 12:56 pm

Wow.....I was very lost...it would be nice if you had labelled what was what under Lead Guitar....ex/ intro verse etc

0 reply
GATW wrote on May 27 2008, 05:08 am

Ahh I'm Lost LOL

I want to post or [tab]
guest
You may want to rate the tab now too:
select rating
Please do not post tabs as comments. Select "correction" instead!