Oops, an error
Loading. Please wait.

Pain Redefined Tab

ver3
ver3

Intro

Whole song

Interactive

More versions @911Tabs.com
5,392 views 6 this week
2 commentsread comments
1 2 3 4 5
accurate
x 3
Autoscroll
+/-
esc
set tempo
stop
Contributor
Difficulty
Tuning
intermediate
C# G# C# F# A# D#
Hey! There's an official Ultimate Guitar app which is ideal
for learning songs when you're away from computer. Get the app
WARNING: You are trying to view
                                    content from Ultimate-Guitar.com
                                    in an unauthorized application,
                                    which is prohibited.

                                    Please use an official Ultimate
                                    Guitar Tabs application for iPhone,
                                    iPad or Android to access legitimate
                                    chords, guitar, bass, and drum tabs
                                    from Ultimate-Guitar.com database.

                                    Type "ultimate guitar tabs" in Apple
                                    App Store's or Android Market's
                                    search to find the application.
Disturbed: Pain Redefined

Transcribed by: Andrew Zara (disturbedfreak0520@yahoo.com)

Date last modified: June 11, 2007

PLEASE DO NOT COPY THIS TAB TO ANOTHER SITE
WITHOUT AUTHORS' PERMISSION. THANK YOU.

Tuning: Drop Db (Db,Ab,Db,Gb,Bb,Eb)

Guitar 1

PM PM PM   PM         PM PM PM              
      S  S  S  S S  S S  S  S  S  S  S S S S  S   
D#||---------------------------------------------|
A#||---------------------------------------------|
F#||---------------------------------------------|
C#||---------------------------------------------|
G#||-----------7----7---(7)----------7---7---(7)-|
C#||--4--4--4----4----------4--4--4--------------|


  Represents echoes                                 
  S                  S  S  S  S  S  S  S  H         
---------------------------------------------------|
---------------------------------------------------|
---------------------------------------------------|
---------------------------------------------------|
--------------------(7)---(7)---(7)---(7)----------|
---------------------------------------------------|


  PM PM PM   PM         PM PM PM              
  S  S  S  S S  S S  S  S  S  S  S S S S  S   
---------------------------------------------|
---------------------------------------------|
---------------------------------------------|
---------------------------------------------|
-----------5----5---(5)----------5---5---(5)-|
--4--4--4----4----------4--4--4--------------|


  S  S  S  S  S  S  S  S  H         
-----------------------------------|
-----------------------------------|
-----------------------------------|
-----------------------------------|
----(5)---(5)---(5)---(5)----------|
-----------------------------------|


  PM PM PM   PM         PM PM PM              
  S  S  S  S S  S S  S  S  S  S  S S S S  S   
---------------------------------------------|
---------------------------------------------|
---------------------------------------------|
---------------------------------------------|
-----------7----7---(7)----------7---7---(7)-|
--4--4--4----4----------4--4--4--------------|


  Represents echoes                                 
  S                  S  S  S  S  S  S  S  H         
---------------------------------------------------|
---------------------------------------------------|
---------------------------------------------------|
---------------------------------------------------|
--------------------(7)---(7)---(7)---(7)----------|
---------------------------------------------------|


  PM PM PM   PM         PM PM PM              
  S  S  S  S S  S S  S  S  S  S  S S S S  S   
---------------------------------------------|
---------------------------------------------|
---------------------------------------------|
---------------------------------------------|
-----------5----5---(5)----------5---5---(5)-|
--4--4--4----4----------4--4--4--------------|


  S  S  S  S  S  S  S  S  H                                             
-----------------------------------|-----------|-----------|-----------|
-----------------------------------|-----------|-----------|-----------|
-----------------------------------|-----------|-----------|-----------|
-----------------------------------|-----------|-----------|-----------|
----(5)---(5)---(5)---(5)----------|-----------|-----------|-----------|
-----------------------------------|-----------|-----------|-----------|


-----------|-----------|-----------|-----------|-----------|-----------|
-----------|-----------|-----------|-----------|-----------|-----------|
-----------|-----------|-----------|-----------|-----------|-----------|
-----------|-----------|-----------|-----------|-----------|-----------|
-----------|-----------|-----------|-----------|-----------|-----------|
-----------|-----------|-----------|-----------|-----------|-----------|


              Q.     E  Q    Q       H.           E  E   
-----------|---------4--4---------|---------------------|
-----------|-----------------5----|--L------------------|
-----------|----------------------|---------------6--6--|
-----------|--4-------------------|---------------------|
-----------|----------------------|---------------------|
-----------|----------------------|---------------------|


  Q    E  E  E  E  E  E     E  Q    E  E  E  E  E     Q.     E  Q    Q     
----------4--4--4--------|----------4--5--5--4--4--|---------4--4---------|
-------------------5--5--|-------------------------|-----------------5----|
--L----------------------|-------------------------|----------------------|
-------0-----------------|--2--2-------------------|--4-------------------|
-------------------------|-------------------------|----------------------|
-------------------------|-------------------------|----------------------|


  H.           E  E     Q    E  E  E  E  E  E     E  Q    E  E  E  E  E         
---------------------|----------4--4--4--------|----------4--5--5--4--4--|-----|
--L------------------|-------------------5--5--|-------------------------|-----|
---------------6--6--|--L----------------------|-------------------------|-----|
---------------------|-------0-----------------|--2--2-------------------|-----|
---------------------|-------------------------|-------------------------|-----|
---------------------|-------------------------|-------------------------|-----|


-----|-----|-----|-----|-----|-----|-----|-----|-----|-----|-----|-----|-----|
-----|-----|-----|-----|-----|-----|-----|-----|-----|-----|-----|-----|-----|
-----|-----|-----|-----|-----|-----|-----|-----|-----|-----|-----|-----|-----|
-----|-----|-----|-----|-----|-----|-----|-----|-----|-----|-----|-----|-----|
-----|-----|-----|-----|-----|-----|-----|-----|-----|-----|-----|-----|-----|
-----|-----|-----|-----|-----|-----|-----|-----|-----|-----|-----|-----|-----|


                                      Q.     E  Q    Q     
-----|-----|-----|-----|-----|-----|---------4--4---------|
-----|-----|-----|-----|-----|-----|-----------------5----|
-----|-----|-----|-----|-----|-----|----------------------|
-----|-----|-----|-----|-----|-----|--4-------------------|
-----|-----|-----|-----|-----|-----|----------------------|
-----|-----|-----|-----|-----|-----|----------------------|


  H.           E  E     Q    E  E  E  E  E  E     E  Q    E  E  E  E  E   
---------------------|----------4--4--4--------|----------4--5--5--4--4--|
--L------------------|-------------------5--5--|-------------------------|
---------------6--6--|--L----------------------|-------------------------|
---------------------|-------0-----------------|--2--2-------------------|
---------------------|-------------------------|-------------------------|
---------------------|-------------------------|-------------------------|


  Q.     E  Q    Q       H.           E  E     Q    E  E  E  E  E  E   
---------4--4---------|---------------------|----------4--4--4--------|
-----------------5----|--L------------------|-------------------5--5--|
----------------------|---------------6--6--|--L----------------------|
--4-------------------|---------------------|-------0-----------------|
----------------------|---------------------|-------------------------|
----------------------|---------------------|-------------------------|


  E  Q    E  E  E  E  E                                                         
----------4--5--5--4--4--|-----|-----|-----|-----|-----|-----|-----|-----|-----|
-------------------------|-----|-----|-----|-----|-----|-----|-----|-----|-----|
-------------------------|-----|-----|-----|-----|-----|-----|-----|-----|-----|
--2--2-------------------|-----|-----|-----|-----|-----|-----|-----|-----|-----|
-------------------------|-----|-----|-----|-----|-----|-----|-----|-----|-----|
-------------------------|-----|-----|-----|-----|-----|-----|-----|-----|-----|


                                                  >                      
                                                  E  E  Q    E  Q    E   
-----|-----|-----|-----|-----|-----|-----|-----|------------------------|
-----|-----|-----|-----|-----|-----|-----|-----|--------0----L--0-------|
-----|-----|-----|-----|-----|-----|-----|-----|------------------------|
-----|-----|-----|-----|-----|-----|-----|-----|-----7---------------7--|
-----|-----|-----|-----|-----|-----|-----|-----|------------------------|
-----|-----|-----|-----|-----|-----|-----|-----|--4---------------------|


  >                        >                        >                      
  E  E  Q    E  Q    E     E  E  Q    E  Q    E     E  E  Q    E  Q    E   
------------------------|------------------------|------------------------|
--------0----L--0-------|--------0----L--0-------|--------0----L--0-------|
------------------------|------------------------|------------------------|
-----7---------------7--|-----7---------------7--|-----7---------------7--|
------------------------|------------------------|------------------------|
--3---------------------|--4---------------------|--3---------------------|


  >                        >                                 >               
  E  E  Q    E  Q    E     E  E  Q    E  Q    E     E  E  E  E  E  E  E  E   
------------------------|------------------------|--------------------------|
--------0----L--0-------|--------0----L--0-------|--------------------------|
------------------------|------------------------|--------2--------2--2-----|
-----7---------------7--|-----7---------------7--|-----2-----------------2--|
------------------------|------------------------|--0-----------------------|
--4---------------------|--3---------------------|-----------2--L-----------|


                             >                        >                      
  E  E  E  E  E  E  E  E     E  E  Q    E  Q    E     E  E  Q    E  Q    E   
--------------------------|------------------------|------------------------|
--------------------------|--------0----L--0-------|--------0----L--0-------|
--4-----4-----4-----2-----|------------------------|------------------------|
-----4-----------------2--|-----7---------------7--|-----7---------------7--|
-----------0-----0--------|------------------------|------------------------|
--------------------------|--4---------------------|--3---------------------|


  >                        >                        >                      
  E  E  Q    E  Q    E     E  E  Q    E  Q    E     E  E  Q    E  Q    E   
------------------------|------------------------|------------------------|
--------0----L--0-------|--------0----L--0-------|--------0----L--0-------|
------------------------|------------------------|------------------------|
-----7---------------7--|-----7---------------7--|-----7---------------7--|
------------------------|------------------------|------------------------|
--4---------------------|--3---------------------|--4---------------------|


  >                                 >                                          
  E  E  Q    E  Q    E     E  E  E  E  E  E  E  E     E  E  E  E  E  E  E  E   
------------------------|--------------------------|--------------------------|
--------0----L--0-------|--------------------------|--------------------------|
------------------------|--------2--------2--2-----|--4-----4-----4-----2-----|
-----7---------------7--|-----2-----------------2--|-----4-----------------2--|
------------------------|--0-----------------------|-----------0-----0--------|
--3---------------------|-----------2--L-----------|--------------------------|


-----|-----|-----|-----|-----|-----|-----|-----|-----|-----|-----|-----|-----|
-----|-----|-----|-----|-----|-----|-----|-----|-----|-----|-----|-----|-----|
-----|-----|-----|-----|-----|-----|-----|-----|-----|-----|-----|-----|-----|
-----|-----|-----|-----|-----|-----|-----|-----|-----|-----|-----|-----|-----|
-----|-----|-----|-----|-----|-----|-----|-----|-----|-----|-----|-----|-----|
-----|-----|-----|-----|-----|-----|-----|-----|-----|-----|-----|-----|-----|


-----|-----|-----|-----|-----|-----|-----|-----|-----|-----|-----||
-----|-----|-----|-----|-----|-----|-----|-----|-----|-----|-----||
-----|-----|-----|-----|-----|-----|-----|-----|-----|-----|-----||
-----|-----|-----|-----|-----|-----|-----|-----|-----|-----|-----||
-----|-----|-----|-----|-----|-----|-----|-----|-----|-----|-----||
-----|-----|-----|-----|-----|-----|-----|-----|-----|-----|-----||

*****************************************
*****************************************
*****************************************

Guitar 2

D#||-------|-------|-------|-------|-------|-------|-------|-------|
A#||-------|-------|-------|-------|-------|-------|-------|-------|
F#||-------|-------|-------|-------|-------|-------|-------|-------|
C#||-------|-------|-------|-------|-------|-------|-------|-------|
G#||-------|-------|-------|-------|-------|-------|-------|-------|
C#||-------|-------|-------|-------|-------|-------|-------|-------|


  PM PM PM      PM PM PM     PM PM     
  S  S  S  S E  S  S  S  E.  S  S  E   
--------------------------------------|
--------------------------------------|
--------------------------------------|
--------------------------------------|
-----------7-L-----------5------------|
--4--4--4-------4--4--4------4--4--7--|


  PM PM    PM PM PM PM    PM PM PM PM     
  S  S  E  S  S  S  S  E  S  S  S  S  E   
-----------------------------------------|
-----------------------------------------|
-----------------------------------------|
-----------------------------------------|
-----------------------5--------------7--|
--4--4--8--4--4--4--4--5--4--4--4--4--7--|


  PM PM PM      PM PM PM     PM PM     
  S  S  S  S E  S  S  S  E.  S  S  E   
--------------------------------------|
--------------------------------------|
--------------------------------------|
--------------------------------------|
-----------7-L-----------5------------|
--4--4--4-------4--4--4------4--4--7--|


  PM PM    PM PM PM PM    PM PM PM PM     
  S  S  E  S  S  S  S  E  S  S  S  S  E   
-----------------------------------------|
-----------------------------------------|
-----------------------------------------|
-----------------------------------------|
-----------------------5--------------5--|
--4--4--8--4--4--4--4--5--4--4--4--4--5--|


  PM PM PM      PM PM PM     PM PM     
  S  S  S  S E  S  S  S  E.  S  S  E   
--------------------------------------|
--------------------------------------|
--------------------------------------|
--------------------------------------|
-----------7-L-----------5------------|
--4--4--4-------4--4--4------4--4--7--|


  PM PM    PM PM PM PM    PM PM PM PM     
  S  S  E  S  S  S  S  E  S  S  S  S  E   
-----------------------------------------|
-----------------------------------------|
-----------------------------------------|
-----------------------------------------|
-----------------------5--------------7--|
--4--4--8--4--4--4--4--5--4--4--4--4--7--|


  PM PM PM      PM PM PM     PM PM     
  S  S  S  S E  S  S  S  E.  S  S  E   
--------------------------------------|
--------------------------------------|
--------------------------------------|
--------------------------------------|
-----------7-L-----------5------------|
--4--4--4-------4--4--4------4--4--7--|


  PM PM    PM PM PM PM    PM PM PM PM                 
  S  S  E  S  S  S  S  E  S  S  S  S  E               
-----------------------------------------|-----|-----|
-----------------------------------------|-----|-----|
-----------------------------------------|-----|-----|
-----------------------------------------|-----|-----|
-----------------------5--------------5--|-----|-----|
--4--4--8--4--4--4--4--5--4--4--4--4--5--|-----|-----|


  PM PM    PM PM   PM    PM PM PM PM    PM PM    PM PM   PM    PM PM PM PM  
  E  E  E  S  S  S S  E  S  S  S  S     E  E  E  S  S  S S  E  S  S  S  S   
-------------------------------------|-------------------------------------|
-------------------------------------|-------------------------------------|
-------------------------------------|-------------------------------------|
-------------------------------------|-------------------------------------|
--4--4-----4--4----4-----4--4--4--4--|--4--4-----4--4----4-----4--4--4--4--|
--4--4-----4--4----4-----4--4--4--4--|--4--4-----4--4----4-----4--4--4--4--|


  PM PM    PM PM   PM    PM PM PM PM    PM PM    PM PM   PM    PM PM PM PM  
  E  E  E  S  S  S S  E  S  S  S  S     E  E  E  S  S  S S  E  S  S  S  S   
-------------------------------------|-------------------------------------|
-------------------------------------|-------------------------------------|
-------------------------------------|-------------------------------------|
-------------------------------------|-------------------------------------|
--4--4-----4--4----4-----4--4--4--4--|--4--4-----4--4----4-----4--4--4--4--|
--4--4-----4--4----4-----4--4--4--4--|--4--4-----4--4----4-----4--4--4--4--|


  PM PM    PM PM   PM    PM PM PM PM    PM PM    PM PM   PM    PM PM PM PM  
  E  E  E  S  S  S S  E  S  S  S  S     E  E  E  S  S  S S  E  S  S  S  S   
-------------------------------------|-------------------------------------|
-------------------------------------|-------------------------------------|
-------------------------------------|-------------------------------------|
-------------------------------------|-------------------------------------|
--4--4-----4--4----4-----4--4--4--4--|--4--4-----4--4----4-----4--4--4--4--|
--4--4-----4--4----4-----4--4--4--4--|--4--4-----4--4----4-----4--4--4--4--|


  PM PM    PM PM   PM    PM PM PM PM    PM PM    PM PM   PM    PM PM PM PM  
  E  E  E  S  S  S S  E  S  S  S  S     E  E  E  S  S  S S  E  S  S  S  S   
-------------------------------------|-------------------------------------|
-------------------------------------|-------------------------------------|
-------------------------------------|-------------------------------------|
-------------------------------------|-------------------------------------|
--4--4-----4--4----4-----4--4--4--4--|--4--4-----4--4----4-----4--4--4--4--|
--4--4-----4--4----4-----4--4--4--4--|--4--4-----4--4----4-----4--4--4--4--|


                      PM                                PM          
  S  S E  E  E  S S S S  S  S E     S  S E  E  E  S S S S  S  S E   
---------------------------------|---------------------------------|
---------------------------------|---------------------------------|
---------------------------------|---------------------------------|
--4h-5-4--4--4----4------4h-5-4--|--7h-8-4--4--4----4------4h-5-4--|
--4h-5-4--4--4----4---4--4h-5-4--|--7h-8-4--4--4----4---4--4h-5-4--|
--4h-5-4--4--4----4---4--4h-5-4--|--7h-8-4--4--4----4---4--4h-5-4--|


                       PM                                      
  S   S E  E  E  S S S S  S  S E     E.  S E  E  S E.  E  S S  
----------------------------------|---------------------------|
----------------------------------|---------------------------|
----------------------------------|---------------------------|
--9h-10-4--4--4----4------4h-5-4--|--2---2-2--2--L-2---7--7-7-|
--9h-10-4--4--4----4---4--4h-5-4--|--2---2-2--2--L-2---7--7-7-|
--9h-10-4--4--4----4---4--4h-5-4--|--2---2-2--2--L-2---7--7-7-|


                      PM                                PM          
  S  S E  E  E  S S S S  S  S E     S  S E  E  E  S S S S  S  S E   
---------------------------------|---------------------------------|
---------------------------------|---------------------------------|
---------------------------------|---------------------------------|
--4h-5-4--4--4----4------4h-5-4--|--7h-8-4--4--4----4------4h-5-4--|
--4h-5-4--4--4----4---4--4h-5-4--|--7h-8-4--4--4----4---4--4h-5-4--|
--4h-5-4--4--4----4---4--4h-5-4--|--7h-8-4--4--4----4---4--4h-5-4--|


                       PM                                      
  S   S E  E  E  S S S S  S  S E     E.  S E  E  S E.  E  S S  
----------------------------------|---------------------------|
----------------------------------|---------------------------|
----------------------------------|---------------------------|
--9h-10-4--4--4----4------4h-5-4--|--2---2-2--2--L-2---7--7-7-|
--9h-10-4--4--4----4---4--4h-5-4--|--2---2-2--2--L-2---7--7-7-|
--9h-10-4--4--4----4---4--4h-5-4--|--2---2-2--2--L-2---7--7-7-|


  E  E  E  E  E  E  E  E     E  E  E  E  E  E  E  E   
--------------------------|--------------------------|
--------------------------|--3--3--3-----------------|
--------------------------|--2--2--2--6--6-----------|
--4--4--4--2--2--7--7--0--|--0--0--0--6--6--3--3--3--|
--4--4--4--2--2--7--7--0--|--0--0--0--4--4--3--3--3--|
--4--4--4--2--2--7--7--0--|--0--0--0--------3--3--3--|


  E  E  E  E  E  E  E  E     E  E  E  E  E  E  E  E   
--------------------------|--------------------------|
--------------------------|--3--3--3-----------------|
--------------------------|--2--2--2--6--6--9--9--9--|
--4--4--4--2--2--7--7--0--|--0--0--0--6--6--9--9--9--|
--4--4--4--2--2--7--7--0--|--0--0--0--4--4--7--7--7--|
--4--4--4--2--2--7--7--0--|--0--0--0-----------------|


  E  E  E  E  E  E  E  E     E  E  E  E  E  E  E  E   
--------------------------|--------------------------|
--------------------------|--3--3--3-----------------|
--------------------------|--2--2--2--6--6-----------|
--4--4--4--2--2--7--7--0--|--0--0--0--6--6--3--3--3--|
--4--4--4--2--2--7--7--0--|--0--0--0--4--4--3--3--3--|
--4--4--4--2--2--7--7--0--|--0--0--0--------3--3--3--|


  E  E  E  E  E  E  E  E     S S S S S S E  S S S S E  E   
--------------------------|-------------------------------|
--------------------------|-------------------------------|
--4--4--4--4--4--4--4--4--|--6---6-----x-6--x-6---6-------|
--4--4--4--4--4--4--4--4--|--6---6-----x-6--x-6---6-2--2--|
--2--2--2--2--2--2--2--2--|--4---4-----x-4--x-4---4-2--2--|
--------------------------|-------------------------2--2--|


  PM PM PM      PM PM PM     PM PM     
  S  S  S  S E  S  S  S  E.  S  S  E   
--------------------------------------|
--------------------------------------|
--------------------------------------|
--------------------------------------|
-----------7-L-----------5------------|
--4--4--4-------4--4--4------4--4--7--|


  PM PM    PM PM PM PM    PM PM PM PM     
  S  S  E  S  S  S  S  E  S  S  S  S  E   
-----------------------------------------|
-----------------------------------------|
-----------------------------------------|
-----------------------------------------|
-----------------------5--------------7--|
--4--4--8--4--4--4--4--5--4--4--4--4--7--|


  PM PM PM      PM PM PM     PM PM     
  S  S  S  S E  S  S  S  E.  S  S  E   
--------------------------------------|
--------------------------------------|
--------------------------------------|
--------------------------------------|
-----------7-L-----------5------------|
--4--4--4-------4--4--4------4--4--7--|


  PM PM    PM PM PM PM    PM PM PM PM       PM PM    PM PM   PM    PM PM PM PM  
  S  S  E  S  S  S  S  E  S  S  S  S  E     E  E  E  S  S  S S  E  S  S  S  S   
-----------------------------------------|-------------------------------------|
-----------------------------------------|-------------------------------------|
-----------------------------------------|-------------------------------------|
-----------------------------------------|-------------------------------------|
-----------------------5--------------5--|--4--4-----4--4----4-----4--4--4--4--|
--4--4--8--4--4--4--4--5--4--4--4--4--5--|--4--4-----4--4----4-----4--4--4--4--|


  PM PM    PM PM   PM    PM PM PM PM    PM PM    PM PM   PM    PM PM PM PM  
  E  E  E  S  S  S S  E  S  S  S  S     E  E  E  S  S  S S  E  S  S  S  S   
-------------------------------------|-------------------------------------|
-------------------------------------|-------------------------------------|
-------------------------------------|-------------------------------------|
-------------------------------------|-------------------------------------|
--4--4-----4--4----4-----4--4--4--4--|--4--4-----4--4----4-----4--4--4--4--|
--4--4-----4--4----4-----4--4--4--4--|--4--4-----4--4----4-----4--4--4--4--|


  PM PM    PM PM   PM    PM PM PM PM    PM PM    PM PM   PM    PM PM PM PM  
  E  E  E  S  S  S S  E  S  S  S  S     E  E  E  S  S  S S  E  S  S  S  S   
-------------------------------------|-------------------------------------|
-------------------------------------|-------------------------------------|
-------------------------------------|-------------------------------------|
-------------------------------------|-------------------------------------|
--4--4-----4--4----4-----4--4--4--4--|--4--4-----4--4----4-----4--4--4--4--|
--4--4-----4--4----4-----4--4--4--4--|--4--4-----4--4----4-----4--4--4--4--|


  PM PM    PM PM   PM    PM PM PM PM    PM PM    PM PM   PM    PM PM PM PM  
  E  E  E  S  S  S S  E  S  S  S  S     E  E  E  S  S  S S  E  S  S  S  S   
-------------------------------------|-------------------------------------|
-------------------------------------|-------------------------------------|
-------------------------------------|-------------------------------------|
-------------------------------------|-------------------------------------|
--4--4-----4--4----4-----4--4--4--4--|--4--4-----4--4----4-----4--4--4--4--|
--4--4-----4--4----4-----4--4--4--4--|--4--4-----4--4----4-----4--4--4--4--|


  PM PM    PM PM   PM    PM PM PM PM                        PM          
  E  E  E  S  S  S S  E  S  S  S  S     S  S E  E  E  S S S S  S  S E   
-------------------------------------|---------------------------------|
-------------------------------------|---------------------------------|
-------------------------------------|---------------------------------|
-------------------------------------|--4h-5-4--4--4----4------4h-5-4--|
--4--4-----4--4----4-----4--4--4--4--|--4h-5-4--4--4----4---4--4h-5-4--|
--4--4-----4--4----4-----4--4--4--4--|--4h-5-4--4--4----4---4--4h-5-4--|


                      PM                                 PM          
  S  S E  E  E  S S S S  S  S E     S   S E  E  E  S S S S  S  S E   
---------------------------------|----------------------------------|
---------------------------------|----------------------------------|
---------------------------------|----------------------------------|
--7h-8-4--4--4----4------4h-5-4--|--9h-10-4--4--4----4------4h-5-4--|
--7h-8-4--4--4----4---4--4h-5-4--|--9h-10-4--4--4----4---4--4h-5-4--|
--7h-8-4--4--4----4---4--4h-5-4--|--9h-10-4--4--4----4---4--4h-5-4--|


                                                  PM          
  E.  S E  E  S E.  E  S S    S  S E  E  E  S S S S  S  S E   
---------------------------|---------------------------------|
---------------------------|---------------------------------|
---------------------------|---------------------------------|
--2---2-2--2--L-2---7--7-7-|--4h-5-4--4--4----4------4h-5-4--|
--2---2-2--2--L-2---7--7-7-|--4h-5-4--4--4----4---4--4h-5-4--|
--2---2-2--2--L-2---7--7-7-|--4h-5-4--4--4----4---4--4h-5-4--|


                      PM                                 PM          
  S  S E  E  E  S S S S  S  S E     S   S E  E  E  S S S S  S  S E   
---------------------------------|----------------------------------|
---------------------------------|----------------------------------|
---------------------------------|----------------------------------|
--7h-8-4--4--4----4------4h-5-4--|--9h-10-4--4--4----4------4h-5-4--|
--7h-8-4--4--4----4---4--4h-5-4--|--9h-10-4--4--4----4---4--4h-5-4--|
--7h-8-4--4--4----4---4--4h-5-4--|--9h-10-4--4--4----4---4--4h-5-4--|


  E.  S E  E  S E.  E  S S    E  E  E  E  E  E  E  E   
---------------------------|--------------------------|
---------------------------|--------------------------|
---------------------------|--------------------------|
--2---2-2--2--L-2---7--7-7-|--4--4--4--2--2--7--7--0--|
--2---2-2--2--L-2---7--7-7-|--4--4--4--2--2--7--7--0--|
--2---2-2--2--L-2---7--7-7-|--4--4--4--2--2--7--7--0--|


  E  E  E  E  E  E  E  E     E  E  E  E  E  E  E  E   
--------------------------|--------------------------|
--3--3--3-----------------|--------------------------|
--2--2--2--6--6-----------|--------------------------|
--0--0--0--6--6--3--3--3--|--4--4--4--2--2--7--7--0--|
--0--0--0--4--4--3--3--3--|--4--4--4--2--2--7--7--0--|
--0--0--0--------3--3--3--|--4--4--4--2--2--7--7--0--|


  E  E  E  E  E  E  E  E     E  E  E  E  E  E  E  E   
--------------------------|--------------------------|
--3--3--3-----------------|--------------------------|
--2--2--2--6--6--9--9--9--|--------------------------|
--0--0--0--6--6--9--9--9--|--4--4--4--2--2--7--7--0--|
--0--0--0--4--4--7--7--7--|--4--4--4--2--2--7--7--0--|
--0--0--0-----------------|--4--4--4--2--2--7--7--0--|


  E  E  E  E  E  E  E  E     E  E  E  E  E  E  E  E   
--------------------------|--------------------------|
--3--3--3-----------------|--------------------------|
--2--2--2--6--6-----------|--4--4--4--4--4--4--4--4--|
--0--0--0--6--6--3--3--3--|--4--4--4--4--4--4--4--4--|
--0--0--0--4--4--3--3--3--|--2--2--2--2--2--2--2--2--|
--0--0--0--------3--3--3--|--------------------------|


  S S S S S S E  S S S S E  E     W                                     
-------------------------------|-------------------|-------------------|
-------------------------------|-------------------|-------------------|
--6---6-----x-6--x-6---6-------|-------------------|-------------------|
--6---6-----x-6--x-6---6-2--2--|--4----------------|-------------------|
--4---4-----x-4--x-4---4-2--2--|--4----------------|-------------------|
-------------------------2--2--|--4----------------|-------------------|


-------------------|-------------------|-------------------|-------------------|
-------------------|-------------------|-------------------|-------------------|
-------------------|-------------------|-------------------|-------------------|
-------------------|-------------------|-------------------|-------------------|
-------------------|-------------------|-------------------|-------------------|
-------------------|-------------------|-------------------|-------------------|


-------------------|-------------------|-------------------|-------------------|
-------------------|-------------------|-------------------|-------------------|
-------------------|-------------------|-------------------|-------------------|
-------------------|-------------------|-------------------|-------------------|
-------------------|-------------------|-------------------|-------------------|
-------------------|-------------------|-------------------|-------------------|


-------------------|-------------------|-------------------|-------------------|
-------------------|-------------------|-------------------|-------------------|
-------------------|-------------------|-------------------|-------------------|
-------------------|-------------------|-------------------|-------------------|
-------------------|-------------------|-------------------|-------------------|
-------------------|-------------------|-------------------|-------------------|


                                          PM PM PM PM              
                                          E  E  E  E  E  E  E  E   
-------------------|-------------------|--------------------------|
-------------------|-------------------|--------------------------|
-------------------|-------------------|--------------------------|
-------------------|-------------------|--------------------------|
-------------------|-------------------|--9--9--9--9--9--9--9--9--|
-------------------|-------------------|--9--9--9--9--9--9--9--9--|


  E.  S E  E  S E.  E.  S    E  E  S E.  E  E  E  E   
--------------------------|--------------------------|
--------------------------|--------------------------|
--------------------------|--------------------------|
--4---2-L--5--L-2---4---2-|--L--5--L-2---4--4--2--5--|
--4---2-L--5--L-2---4---2-|--L--5--L-2---4--4--2--5--|
--4---2-L--5--L-2---4---2-|--L--5--L-2---4--4--2--5--|


  E.  S E  E  S E.  E.  S    E  E  S E.  E  E  E  E   
--------------------------|--------------------------|
--------------------------|--------------------------|
--------------------------|--------------------------|
--4---2-L--5--L-2---4---2-|--L--5--L-2---4--4--2--5--|
--4---2-L--5--L-2---4---2-|--L--5--L-2---4--4--2--5--|
--4---2-L--5--L-2---4---2-|--L--5--L-2---4--4--2--5--|


  E.  S E  E  S E.  E.  S    E  E  S E.  E  E  E  E   
--------------------------|--------------------------|
--------------------------|--------------------------|
--------------------------|--------------------------|
--4---2-L--5--L-2---4---2-|--L--5--L-2---4--4--2--5--|
--4---2-L--5--L-2---4---2-|--L--5--L-2---4--4--2--5--|
--4---2-L--5--L-2---4---2-|--L--5--L-2---4--4--2--5--|


                                              NH  NH  NH  NH  NH  
  E.  S E  E  S E.  E.  S    E  E  S E.  E    S   S   S   S   E   
--------------------------|--------------------------------------|
--------------------------|--------------------------------------|
--------------------------|--------------------------------------|
--------------------------|--------------------------------------|
--4---2-L--5--L-2---4---2-|--L--2--5-2---4-----------------------|
--4---2-L--5--L-2---4---2-|--L--2--5-2---4--<>4-<>4-<>4-<>4-<>4--|


  E  E  E  E  E  E  E  E     E  E  E  E  E  E  E  E   
--------------------------|--------------------------|
--------------------------|--3--3--3-----------------|
--------------------------|--2--2--2--6--6-----------|
--4--4--4--2--2--7--7--0--|--0--0--0--6--6--3--3--3--|
--4--4--4--2--2--7--7--0--|--0--0--0--4--4--3--3--3--|
--4--4--4--2--2--7--7--0--|--0--0--0--------3--3--3--|


  E  E  E  E  E  E  E  E     E  E  E  E  E  E  E  E   
--------------------------|--------------------------|
--------------------------|--3--3--3-----------------|
--------------------------|--2--2--2--6--6--9--9--9--|
--4--4--4--2--2--7--7--0--|--0--0--0--6--6--9--9--9--|
--4--4--4--2--2--7--7--0--|--0--0--0--4--4--7--7--7--|
--4--4--4--2--2--7--7--0--|--0--0--0-----------------|


  E  E  E  E  E  E  E  E     E  E  E  E  E  E  E  E   
--------------------------|--------------------------|
--------------------------|--3--3--3-----------------|
--------------------------|--2--2--2--6--6-----------|
--4--4--4--2--2--7--7--0--|--0--0--0--6--6--3--3--3--|
--4--4--4--2--2--7--7--0--|--0--0--0--4--4--3--3--3--|
--4--4--4--2--2--7--7--0--|--0--0--0--------3--3--3--|


  E  E  E  E  E  E  E  E     S S S S S S E  S S S S E  E   
--------------------------|-------------------------------|
--------------------------|-------------------------------|
--4--4--4--4--4--4--4--4--|--6---6-----x-6--x-6---6-------|
--4--4--4--4--4--4--4--4--|--6---6-----x-6--x-6---6-2--2--|
--2--2--2--2--2--2--2--2--|--4---4-----x-4--x-4---4-2--2--|
--------------------------|-------------------------2--2--|


  PM PM PM      PM PM PM     PM PM     
  S  S  S  S E  S  S  S  E.  S  S  E   
--------------------------------------|
--------------------------------------|
--------------------------------------|
--------------------------------------|
-----------7-L-----------5------------|
--4--4--4-------4--4--4------4--4--7--|


  PM PM    PM PM PM PM    PM PM PM PM     
  S  S  E  S  S  S  S  E  S  S  S  S  E   
-----------------------------------------|
-----------------------------------------|
-----------------------------------------|
-----------------------------------------|
-----------------------5--------------7--|
--4--4--8--4--4--4--4--5--4--4--4--4--7--|


  PM PM PM      PM PM PM     PM PM     
  S  S  S  S E  S  S  S  E.  S  S  E   
--------------------------------------|
--------------------------------------|
--------------------------------------|
--------------------------------------|
-----------7-L-----------5------------|
--4--4--4-------4--4--4------4--4--7--|


  PM PM    PM PM PM PM    PM PM PM PM     
  S  S  E  S  S  S  S  E  S  S  S  S  E   
-----------------------------------------|
-----------------------------------------|
-----------------------------------------|
-----------------------------------------|
-----------------------5--------------5--|
--4--4--8--4--4--4--4--5--4--4--4--4--5--|


  PM PM PM      PM PM PM     PM PM     
  S  S  S  S E  S  S  S  E.  S  S  E   
--------------------------------------|
--------------------------------------|
--------------------------------------|
--------------------------------------|
-----------7-L-----------5------------|
--4--4--4-------4--4--4------4--4--7--|


  PM PM    PM PM PM PM    PM PM PM PM     
  S  S  E  S  S  S  S  E  S  S  S  S  E   
-----------------------------------------|
-----------------------------------------|
-----------------------------------------|
-----------------------------------------|
-----------------------5--------------7--|
--4--4--8--4--4--4--4--5--4--4--4--4--7--|


  PM PM PM      PM PM PM     PM PM     
  S  S  S  S E  S  S  S  E.  S  S  E   
--------------------------------------|
--------------------------------------|
--------------------------------------|
--------------------------------------|
-----------7-L-----------5------------|
--4--4--4-------4--4--4------4--4--7--|


  PM PM    PM PM PM PM    PM PM PM PM      
  S  S  E  S  S  S  S  E  S  S  S  S  E    
-----------------------------------------||
-----------------------------------------||
-----------------------------------------||
-----------------------------------------||
-----------------------5--------------5--||
--4--4--8--4--4--4--4--5--4--4--4--4--5--||








Duration Legend
---------------
W - whole
H - half
Q - quarter
E - 8th
S - 16th
T - 32nd
X - 64th
. - note dotted
|-n-|  - n-tuplets


Tablature Legend
----------------
L - tied note
x - dead note
g - grace note
(n) - ghost note
> - accentuded note
NH - natural harmonic
AH - artificial harmonic
TH - tapped harmonic
SH - semi harmonic
PH - pitch harmonic
h - hammer on
p - pull off
b - bend
br - bendRelease
pb - preBend
pbr - preBendRelease
brb - bendReleaseBend
\n/ - tremolo bar dip
\n - tremolo bar dive
-/n - tremolo bar Release up
/n\ - tremolo bar inverted dip
/n - tremolo bar return
-\n - tremolo bar Release down
S - shift slide
s - legato slide
/ -  slide into from below or out of upwards
\ -  slide into from above or out of downwards
~ - vibrato
W - wide vibrato
tr - trill
TP - tremolo picking
T - tapping
S - slap
P - pop
< - fade in
^ - brush up
v - brush down


comments
We did not receive enough feedback on this tab! Please rate:
print report bad tab
1 2 3 4 5
2 comments total.
0 reply
irishmatt1992 wrote on June 12 2007, 06:16 pm

Again, stolen from my GP5.

0 reply
poc2112 wrote on April 4 2008, 11:01 am

this has got to be one of the most confusing tabs ever.

I want to post or [tab]
guest
You may want to rate the tab now too:
select rating
Please do not post tabs as comments. Select "correction" instead!