Oops, an error
Loading. Please wait.

Remnants Tab

ver6
ver6

Interactive

More versions @911Tabs.com
1,316 views 3 this week
no commentswrite comment
1 2 3 4 5
accurate
x 2
Autoscroll
+/-
esc
set tempo
stop
Contributor
Hey! There's an official Ultimate Guitar app which is ideal
for learning songs when you're away from computer. Get the app
WARNING: You are trying to view
                                    content from Ultimate-Guitar.com
                                    in an unauthorized application,
                                    which is prohibited.

                                    Please use an official Ultimate
                                    Guitar Tabs application for iPhone,
                                    iPad or Android to access legitimate
                                    chords, guitar, bass, and drum tabs
                                    from Ultimate-Guitar.com database.

                                    Type "ultimate guitar tabs" in Apple
                                    App Store's or Android Market's
                                    search to find the application.
   This is my first tabs to I will do the best I can
This is exactly the way Dan Donegan plays it.
Tuning: half step down from standard tuning (D#,G#,C#,F#,A#,D#)
                   __Remnants__
Acoustic Guitar intro
(Dan Donegan)
e|---------------------------------------0---------------------------------|
B|-----------------------0----------------0--------------------------------|
G|-------0-------------0---0---0------0----0-----------0-------------------|
D|-----2---2---2-----2-------2-------2------0--------3---3---3-------------|
A|---2-------2-----3-------------------------------3-------3---------------|
E|-0------------------------------2--------------1-------------------------|
Repeat throughout the entire song
Lead Guitar(Dan Donegan)
e|-------------------------------------------------------------------------|
B|-------------------------------------------------------------------------|
G|-------------------------------------------------------------------------|
D|-------------------------------------------------------------------------|
A|---/7------(18/19)--------(14/15)----------(12/13)-----------------------|
E|-------------------------------------------------------------------------|
               *TH            *TH              *TH
e|-------------------------------------------------------------------------|
B|----------------------------------------10fbd---10p8--7---7h8---7--------|
G|---------7---9---9----7-----7---9---7------------------------------------|
D|-----/9-----------------9------------------------------------------------|
A|-------------------------------------------------------------------------|
E|-------------------------------------------------------------------------|

e|--------------------------------------------14--15--15fbd---15p14h15p14--|
B|----(7/10)-----(10/12)-----(12/15)------/15------------------------------|
G|-------------------------------------------------------------------------|
D|-------------------------------------------------------------------------|
A|-------------------------------------------------------------------------|
E|-------------------------------------------------------------------------|

e|-------------------------------------------------------------------------|
B|--15-------------------------------------15--15---------15fbd--15fbd-----|
G|------14hbd--14--12-------12--14--14fbd------14--14---12-----------------|
D|---------------------/14-------------------------------------------------|
A|-------------------------------------------------------------------------|
E|-------------------------------------------------------------------------|

e|-------------------------------------------------------------------------|
B|--15--15----7h8p7-----7h8p7-----7h8p7---7h8p7-----7h8p7-----7h8p7--------|
G|-----------------9-7-9-----9-7-9------9------9-7-9-----9-7-9-----9-------|
D|-------------------------------------------------------------------------|
A|-------------------------------------------------------------------------|
E|-------------------------------------------------------------------------|
                   X X X     X X X             X X X     X X X
e|-------------------------------------------------------------------------|
B|---10h12p10--------10h12p10---------10h12p10-----------------------------|
G|-----------12-11-12--------12-11-12---------12---9~---9~--9~---9~-6------|
D|-------------------------------------------------------------------------|
A|-------------------------------------------------------------------------|
E|-------------------------------------------------------------------------|
             XX XX XX        XX XX XX
e|-------------------------------------------------------------------------|
B|--9--9fbd----9---7---15fbd--15--13--12-----------------------------------|
G|---------------------------------------12----------------------14fbd--14-|
D|------------------------------------------14--12----12--14--12-----------|
A|-------------------------------------------------14----------------------|
E|-------------------------------------------------------------------------|

e|-------------15fbd--15--12----17fbd--17fbd--17--15----15--21fbd--20--19--|
B|---------------------------15----------------------17--------------------|
G|--12-----12--------------------------------------------------------------|
D|-----/14-----------------------------------------------------------------|
A|-------------------------------------------------------------------------|
E|-------------------------------------------------------------------------|

e|----17h19p17----------19h22p19-----17------------------------------------|
B|-------------20p17h20-----------20----20p17h20---------17--19---20-------|
G|----------------------------------------------------16--------------16---|
D|------------------------------------------------19-----------------------|
A|-------------------------------------------------------------------------|
E|-------------------------------------------------------------------------|

e|----17-----15------------------------------------------------------------|
B|------------------19------17----------17---19---(17/19\17)---------------|
G|-------16-----16------16------16---19----------------------(16/19\16)----|
D|-------------------------------------------------------------------------|
A|-------------------------------------------------------------------------|
E|-------------------------------------------------------------------------|

e|-------------------------------------------------------------------------|
B|--------------------------------15--15-----------------------------------|
G|--(12/14\12)-----12--14--14fbd--14--14--14p12----------------------------|
D|-------------/14------------------------------14-hold-till-asylum-starts-|
A|-------------------------------------------------------------------------|
E|-------------------------------------------------------------------------|

e|-------------------------------------------------------------------------|
B|-------------------------------------------------------------------------|
G|-------------------------------------------------------------------------|
D|-------------------------------------------------------------------------|
A|-------------------------------------------------------------------------|
E|--0--0--0--0--0--0--------0--0---0-----0--0---0----14\-------------------|

                       __Asylum__
Rhythm Guitar (Dan Donegan)
e|-------------------------------------------------------------------------|
B|-------------------------------------------------------------------------|
G|-------------------------------------------------------------------------|
D|-9---------10--------------------9----10---------------------------------|
A|-7---------8-----7-----8-----7-5-7----8-----7-----8-----5-5-5-5----------|
E|---0-0-0-0---0-0-5-0-0-6-0-0-5-3---0-0--0-0-5-0-0-6-0-0-3-3-3-3----------|
     X X X X   X X   X X   X X       X X  X X   X X   X X
Lead Guitar (Dan Donegan) Use Whammy Pedal
e|---------8-7------------------------------------------17p16--17p16--19---|
B|-------------7-8-----------------------------7--7--10------17-----17--17-|
G|--9--9-9---------9--9----------------------------------------------------|
D|----------------------9-9-10--9-10---10----------------------------------|
A|----------------------------------------9--9-----------------------------|
E|-------------------------------------------------------------------------|

Verse
e|-------------------------------------------------------------------------|
B|-------------------------------------------------------------------------|
G|-------------------------------------------------------------------------|
D|-9--------10--------------------9-----10---------------------------------|
A|-7--------8-----7-----8-----7-5-7-----8-----7-----8-----5-5-5-5----------|
E|---0-0-0-0--0-0-5-0-0-6-0-0-5-3---0-0---0-0-5-0-0-6-0-0-3-3-3-3----------|
     X X X X  X X   X X   X X       X X   X X   X X   X X
e|-------------------------------------------------------------------------|
B|-------------------------------------------------------------------------|
G|-------------------------------------------------------------------------|
D|-------------------------------------------------------------------------|
A|-7---------8---------------------7-----8---------------------------------|
E|---0-0-0-0---0-0-5-0-0-6-0-0-5-3---0-0---0-0-5-0-0-6-0-0-3-3-3-3---------|
     X X X X   X X   X X   X X       X X   X X   X X   X X
Post Verse
e|-------------------------------------------------------------------------|
B|-------------------------------------------------------------------------|
G|-------------------------------------------------------------------------|
D|-------------------------------------------------------------------------|
A|--9-9-9-9-3-3-3-3-2-2-2-5-5-5-7-7-9--9-3-3-3-3-2-2-2-5-5-5-3-3-3-3-------|
E|--7-7-7-7-1-1-1-1-0-0-0-3-3-3-5-5-7--7-1-1-1-1-0-0-0-3-3-3-1-1-1-1-------|

Chorus
e|-------------------------------------------------------------------------|
B|-------------------------------------------------------------------------|
G|-------------------------------------------------------------------------|
D|-9----------------------------3-----2-----3-2----------------------------|
A|-7-----------3-2--------------1-----2-----3-2----------------------------|
E|---0-0-0-0-0-1-0-0-0-0-0-000-0--0-0-0-0-0-1-0-0-000-0-0-000--------------|
     X X X X X     X X X X XXX X  X X   X X     X XXX X X XXX
e|-------------------------------------------------------------------------|
B|-------------------------------------------------------------------------|
G|-------------------------------------------------------------------------|
D|-9----------------------------3-----2-----3-2----------------------------|
A|-7-----------3-2--------------1-----2-----3-2-------5--5--5--------------|
E|---0-0-0-0-0-1-0-0-0-0-0-000-0--0-0-0-0-0-1-0-0-000-3--3--3--------------|
     X X X X X     X X X X XXX X  X X   X X     X XXX X  X  X
e|-------------------------------------------------------------------------|
B|-------------------------------------------------------------------------|
G|-------------------------------------------------------------------------|
D|-9----------------------------3-----2-----3-2----------------------------|
A|-7-----------3-2--------------1-----2-----3-2----------------------------|
E|---0-0-0-0-0-1-0-0-0-0-0-000-0--0-0-0-0-0-1-0-0-000-0-0-000--------------|
     X X X X X     X X X X XXX X  X X   X X     X XXX X X XXX
Chorus Ending 1
e|-------------------------------------------------------------------------|
B|-------------------------------------------------------------------------|
G|-------------------------------------------------------------------------|
D|-7--7-7-7--7-7-7-7-7-7-7-7----10---9--------9---10p9----9--7-------------|
A|-7--7-7-7--7-7-7-7-7-7-7-7-------------10------------10------10--9-------|
E|-5--5-5-5--5-5-5-5-5-5-5-5--7----7---7----7---7--------------------------|
        X X                   X    X   X    X   X
Chorus Ending 2
e|-------------------------------------------------------------------------|
B|-------------------------------------------------------------------------|
G|-------------------------------------------------------------------------|
D|------------------------------10---9--------9---10p9----9--7-------------|
A|---------------------------------------10------------10------10--9--7----|
E|-5--5-5-5--5-5-5-5-5-5-5-5--7----7---7----7---7--------------------------|

Post Chorus
e|-------------------------------------------------------------------------|
B|-------------------------------------------------------------------------|
G|-------------7-7-7-10-10-10-7-7-------------7-10-------------------------|
D|-------9-9-9--------------------------9-9-9------------------------------|
A|-7-7-7--------------------------7-7-7------------------------------------|
E|-------------------------------------------------------------------------|
   X X X X X X X X X XX XX XX X X X X X X X X X XX
e|----------------------------------------------------|
B|----------------------------------------------------|
G|-------------7-7-7-10-10-10-7-7-------------7-10----|
D|-------9-9-9--------------------------9-9-9---------|
A|-7-7-7--------------------------7-7-7---------------|
E|----------------------------------------------------|
   X X X X X
Pre Bridge
e|-------------------------------------------------------------------------|
B|-------------------------------------------------------------------------|
G|-------------------------------------------------------------------------|
D|-2-2-2-4-4-4-7-7-7-10-10-10-10-7-7-2-2-2-4-4-4-7-10----------------------|
A|-2-2-2-4-4-4-7-7-7-10-10-10-10-7-7-2-2-2-4-4-4-7-10----------------------|
E|-0-0-0-2-2-2-5-5-5-8--8--8--8--5-5-0-0-0-2-2-2-5-8-----------------------|

e|----------------------------------------------------------|
B|----------------------------------------------------------|
G|----------------------------------------------------------|X2
D|-2-2-2-4-4-4-7-7-7-10-10-10-10-7-7-2-2-2-4-4-4-7-7-7-7-7--|
A|-2-2-2-4-4-4-7-7-7-10-10-10-10-7-7-2-2-2-4-4-4-7-7-7-7-7--|
E|-0-0-0-2-2-2-5-5-5-8--8--8--8--5-5-0-0-0-2-2-2-5-5-5-5-5--|
Repeat for the length of the part
Bridge
e|-------------------------------------------------------------------------|
B|-------------------------------------------------------------------------|
G|-------------------------------------------------------------------------|
D|-5--5-----4--4-----5---7---2-----2-----2-----2-----2---7-----------------|
A|-3--3-0-0-3--3-0-0-3-0-5-0-0-0-0-0-0-0-0-0-0-0-0-0-0-0-5-----------------|
E|-------------------------------------------------------------------------|
        X  X     X  X  X   X   X X   X X   X X   X X   X
e|-------------------------------------------------------------------------|
B|-------------------------------------------------------------------------|
G|-------------------------------------------------------------------------|
D|-5--5-----4--4-----5---7---2-----2-----2---------------------------------|
A|-3--3-0-0-3--3-0-0-3-0-5-0-0-0-0-0-0-0-0-0-0-----------------------------|
E|--------------------------------------------3/up-as-a-touch-harmonic-----|
        X X      X X   X   X   X X   X X   X X * * * * * * * * * * * *
e|-------------------------------------------------------------------------|
B|-------------------------------------------------------------------------|
G|-------------------------------------------------------------------------|
D|-5--5-----4--4-----5---7---2-----2-----2-----2-----2---3-----------------|
A|-3--3-0-0-3--3-0-0-3-0-5-0-0-0-0-0-0-0-0-0-0-0-0-0-0-0-1-----------------|
E|-------------------------------------------------------------------------|
        X X      X X   X   X   X X   X X   X X   X X   X
e|-------------------------------------------------------------------------|
B|-------------------------------------------------------------------------|
G|-------------------------------------------------------------------------|
D|-4--4-----4--4-4-4-4-4-4-4-4-9/7-7-7-7-7-7-7-7/4-4-4-4-4-4-4-------------|
A|-2--2-0-0-2--2-2-2-2-2-2-2-2-9/7-7-7-7-7-7-7-7/4-4-4-4-4-4-4-------------|
E|-----------------------------7/5-5-5-5-5-5-5-5/2-2-2-2-2-2-2-------------|
        X X
Repeat Chorus After this and play the lead and/or Rhythm ending
Rhythm Ending (Dan Donegan)
e|-------------------------------------------------------------------------|
B|-------------------------------------------------------------------------|
G|-------------------------------------------------------------------------|
D|-9---------10--------------------9---------------------10p9---9-7--------|
A|-7---------8-----7-----8-----7-5-7-------------------------10-----10--9--|
E|---0-0-0-0---0-0-5-0-0-6-0-0-5-3---0-0-0-0-0-0-0-0-0-0-------------------|
     X X X X   X X   X X   X X       X X X X X X X X X X
Lead Ending (Dan Donegan) Use Whammy Pedal
e|---------8-7-------------|     |-17p16----17p16----19---------|
B|-------------7-8---------|     |-------17-------17----17\-----|
G|--9--9-9---------9-9-----|X4   |------------------------------|
D|---------------------9-9-|     |------------------------------|
A|-------------------------|     |------------------------------|
E|-------------------------|     |------------------------------|

X=Palm Mute
*=Harmonic
(14/15)=between the frets when they have a harmonic sight under them
P=Pull Off
H=Hammer On
fbd=Full Bend
hbd=Half Bend

       Coment if you have any questions and i will try to answer them and sent me some 
and i will post a step by step video on how to play it.
comments
We did not receive enough feedback on this tab! Please rate:
print report bad tab
1 2 3 4 5
I want to post or [tab]
guest
You may want to rate the tab now too:
select rating
Please do not post tabs as comments. Select "correction" instead!