Oops, an error
Loading. Please wait.

Sickened Tab

ver1
ver1

Intro

Whole song

More versions @911Tabs.com
4,761 views 6 this week
1 commentread comment
1 2 3 4 5
accurate
x 4
Autoscroll
+/-
esc
set tempo
stop
Difficulty
intermediate
WARNING: You are trying to view
                                    content from Ultimate-Guitar.com
                                    in an unauthorized application,
                                    which is prohibited.

                                    Please use an official Ultimate
                                    Guitar Tabs application for iPhone,
                                    iPad or Android to access legitimate
                                    chords, guitar, bass, and drum tabs
                                    from Ultimate-Guitar.com database.

                                    Type "ultimate guitar tabs" in Apple
                                    App Store's or Android Market's
                                    search to find the application.
Song: Sickened
Band: Disturbed
Tabbed By: Philip D.
Drop C (but can be played Drop D too)



     Q    E  Q    Q    E     E  E  Q    E  E  E  E     Q    E  Q    Q    E   
E||-----------------------|-------------------------|-----------------------|
C||-----------------------|-------------------------|-----------------------|
G||-----------------------|-------------------------|-----------------------|
C||-----------------------|-------------------------|-----------------------|
G||-----------------------|-------------------------|-----------------------|
C||--2----3--2----0----2--|--L--3--2----2--0--3--5--|--2----3--2----0----2--|


  E  E  Q    E  E  E  E     Q    E  Q    Q    E     E  E  Q    E  E  E  E   
-------------------------|-----------------------|-------------------------|
-------------------------|-----------------------|-------------------------|
-------------------------|-----------------------|-------------------------|
-------------------------|--2----3--2----0----2--|--L--3--2----------------|
-------------------------|--2----3--2----0----2--|--L--3--2----------------|
--L--3--2----2--0--5--3--|--2----3--2----0----2--|--L--3--2----2--0--3--5--|


  Q    E  Q    Q    E     E  E  E  E  E  Q    E     Q    E  Q    Q    E   
-----------------------|-------------------------|-----------------------|
-----------------------|-------------------------|-----------------------|
-----------------------|-------------------------|-----------------------|
--2----3--2----0----2--|--L-----------2--3----3--|--2----3--2----0----2--|
--2----3--2----0----2--|--L--x--x--x--2--3----3--|--2----3--2----0----2--|
--2----3--2----0----2--|--L--x--x--x--2--3----3--|--2----3--2----0----2--|


  E  E  Q    E  E  E  E     Q    E  Q    Q    E     E  E  Q    E  E  E  E   
-------------------------|-----------------------|-------------------------|
-------------------------|-----------------------|-------------------------|
-------------------------|-----------------------|-------------------------|
--L--3--2----2--0--3--5--|--2----3--2----0----2--|--L--3--2----2--0--5--3--|
--L--3--2----2--0--3--5--|--2----3--2----0----2--|--L--3--2----2--0--5--3--|
--L--3--2----2--0--3--5--|--2----3--2----0----2--|--L--3--2----2--0--5--3--|


  Q    E  Q    Q    E     E  E  Q    E  E  E  E     Q    E  Q    Q    E   
-----------------------|-------------------------|-----------------------|
-----------------------|-------------------------|-----------------------|
-----------------------|-------------------------|-----------------------|
--2----3--2----0----2--|--L--3--2----2--0--3--5--|--2----3--2----0----2--|
--2----3--2----0----2--|--L--3--2----2--0--3--5--|--2----3--2----0----2--|
--2----3--2----0----2--|--L--3--2----2--0--3--5--|--2----3--2----0----2--|


  E  E  E  E  E  Q    E     W                   W                 
-------------------------|-------------------|-------------------|
-------------------------|-------------------|-------------------|
-------------------------|-------------------|-------------------|
--L-----------2--3----3--|--2----------------|--L----------------|
--L--x--x--x--2--3----3--|--2----------------|--L----------------|
--L--x--x--x--2--3----3--|--2----------------|--L----------------|


  W                   W                   W                   W                 
-------------------|-------------------|-------------------|-------------------|
-------------------|-------------------|-------------------|-------------------|
-------------------|-------------------|-------------------|-------------------|
--5----------------|--L----------------|--7----------------|--L----------------|
--5----------------|--L----------------|--7----------------|--L----------------|
--5----------------|--L----------------|--7----------------|--L----------------|


  W                   W                   W                   W                 
-------------------|-------------------|-------------------|-------------------|
-------------------|-------------------|-------------------|-------------------|
-------------------|-------------------|-------------------|-------------------|
--3----------------|--0----------------|--2----------------|--L----------------|
--3----------------|--0----------------|--2----------------|--L----------------|
--3----------------|--0----------------|--2----------------|--L----------------|


  W                   W                   W                   W                 
-------------------|-------------------|-------------------|-------------------|
-------------------|-------------------|-------------------|-------------------|
-------------------|-------------------|-------------------|-------------------|
--0----------------|--L----------------|--3----------------|--L----------------|
--0----------------|--L----------------|--3----------------|--L----------------|
--0----------------|--L----------------|--3----------------|--L----------------|


  W                   W                   Q    E  Q    Q    E   
-------------------|-------------------|-----------------------|
-------------------|-------------------|-----------------------|
-------------------|-------------------|-----------------------|
--2----------------|--0----------------|--2----3--2----0----2--|
--2----------------|--0----------------|--2----3--2----0----2--|
--2----------------|--0----------------|--2----3--2----0----2--|


  E  E  Q    E  E  E  E     Q    E  Q    Q    E     E  E  Q    E  E  E  E   
-------------------------|-----------------------|-------------------------|
-------------------------|-----------------------|-------------------------|
-------------------------|-----------------------|-------------------------|
--L--3--2----2--0--3--5--|--2----3--2----0----2--|--L--3--2----2--0--5--3--|
--L--3--2----2--0--3--5--|--2----3--2----0----2--|--L--3--2----2--0--5--3--|
--L--3--2----2--0--3--5--|--2----3--2----0----2--|--L--3--2----2--0--5--3--|


  Q    E  Q    Q    E     E  E  Q    E  E  E  E     Q    E  Q    Q    E   
-----------------------|-------------------------|-----------------------|
-----------------------|-------------------------|-----------------------|
-----------------------|-------------------------|-----------------------|
--2----3--2----0----2--|--L--3--2----2--0--3--5--|--2----3--2----0----2--|
--2----3--2----0----2--|--L--3--2----2--0--3--5--|--2----3--2----0----2--|
--2----3--2----0----2--|--L--3--2----2--0--3--5--|--2----3--2----0----2--|


  E  E  E  E  E  Q    E     H.            Q       Q    Q.     Q.      
-------------------------|---------------------|---------------------|
-------------------------|---------------------|---------------------|
-------------------------|---------------------|---------------------|
--L-----------2--3----3--|--7------------10----|--L----2------5------|
--L--x--x--x--2--3----3--|--7------------10----|--L----2------5------|
--L--x--x--x--2--3----3--|--7------------10----|--L----2------5------|


  W                   W                   H.            Q     
-------------------|-------------------|---------------------|
-------------------|-------------------|---------------------|
-------------------|-------------------|---------------------|
--3----------------|--2----------------|--7------------10----|
--3----------------|--2----------------|--7------------10----|
--3----------------|--2----------------|--7------------10----|


  Q    Q.     Q.        W                   W                 
---------------------|-------------------|-------------------|
---------------------|-------------------|-------------------|
---------------------|-------------------|-------------------|
--L----2------5------|--3----------------|--5----------------|
--L----2------5------|--3----------------|--5----------------|
--L----2------5------|--3----------------|--5----------------|


  H.            Q       Q    Q.     Q.        W                 
---------------------|---------------------|-------------------|
---------------------|---------------------|-------------------|
---------------------|---------------------|-------------------|
--7------------10----|--L----2------5------|--3----------------|
--7------------10----|--L----2------5------|--3----------------|
--7------------10----|--L----2------5------|--3----------------|


  W                   W                   W                   W                 
-------------------|-------------------|-------------------|-------------------|
-------------------|-------------------|-------------------|-------------------|
-------------------|-------------------|-------------------|-------------------|
--2----------------|--0----------------|--L----------------|--3----------------|
--2----------------|--0----------------|--L----------------|--3----------------|
--2----------------|--0----------------|--L----------------|--3----------------|


  W                   Q    E  Q    Q    E     E  E  Q    E  E  E  E   
-------------------|-----------------------|-------------------------|
-------------------|-----------------------|-------------------------|
-------------------|-----------------------|-------------------------|
--L----------------|--2----3--2----0----2--|--L--3--2----2--0--3--5--|
--L----------------|--2----3--2----0----2--|--L--3--2----2--0--3--5--|
--L----------------|--2----3--2----0----2--|--L--3--2----2--0--3--5--|


  Q    E  Q    Q    E     E  E  Q    E  E  E  E     Q    E  Q    Q    E   
-----------------------|-------------------------|-----------------------|
-----------------------|-------------------------|-----------------------|
-----------------------|-------------------------|-----------------------|
--2----3--2----0----2--|--L--3--2----2--0--5--3--|--2----3--2----0----2--|
--2----3--2----0----2--|--L--3--2----2--0--5--3--|--2----3--2----0----2--|
--2----3--2----0----2--|--L--3--2----2--0--5--3--|--2----3--2----0----2--|


  E  E  Q    E  E  E  E     Q    E  Q    Q    E     E  E  E  E  E  Q    E   
-------------------------|-----------------------|-------------------------|
-------------------------|-----------------------|-------------------------|
-------------------------|-----------------------|-------------------------|
--L--3--2----2--0--3--5--|--2----3--2----0----2--|--L-----------2--3----3--|
--L--3--2----2--0--3--5--|--2----3--2----0----2--|--L--x--x--x--2--3----3--|
--L--3--2----2--0--3--5--|--2----3--2----0----2--|--L--x--x--x--2--3----3--|


  W                   W                   W                   W                 
-------------------|-------------------|-------------------|-------------------|
-------------------|-------------------|-------------------|-------------------|
-------------------|-------------------|-------------------|-------------------|
--2----------------|--L----------------|--5----------------|--L----------------|
--2----------------|--L----------------|--5----------------|--L----------------|
--2----------------|--L----------------|--5----------------|--L----------------|


  W                   W                   W                   W                 
-------------------|-------------------|-------------------|-------------------|
-------------------|-------------------|-------------------|-------------------|
-------------------|-------------------|-------------------|-------------------|
--7----------------|--L----------------|--3----------------|--0----------------|
--7----------------|--L----------------|--3----------------|--0----------------|
--7----------------|--L----------------|--3----------------|--0----------------|


  W                   W                   W                   W                 
-------------------|-------------------|-------------------|-------------------|
-------------------|-------------------|-------------------|-------------------|
-------------------|-------------------|-------------------|-------------------|
--2----------------|--L----------------|--0----------------|--L----------------|
--2----------------|--L----------------|--0----------------|--L----------------|
--2----------------|--L----------------|--0----------------|--L----------------|


  W                   W                   W                   W                 
-------------------|-------------------|-------------------|-------------------|
-------------------|-------------------|-------------------|-------------------|
-------------------|-------------------|-------------------|-------------------|
--3----------------|--L----------------|--2----------------|--0----------------|
--3----------------|--L----------------|--2----------------|--0----------------|
--3----------------|--L----------------|--2----------------|--0----------------|


  Q    E  Q    Q    E     E  E  Q    E  E  E  E     Q    E  Q    Q    E   
-----------------------|-------------------------|-----------------------|
-----------------------|-------------------------|-----------------------|
-----------------------|-------------------------|-----------------------|
--2----3--2----0----2--|--L--3--2----2--0--3--5--|--2----3--2----0----2--|
--2----3--2----0----2--|--L--3--2----2--0--3--5--|--2----3--2----0----2--|
--2----3--2----0----2--|--L--3--2----2--0--3--5--|--2----3--2----0----2--|


  E  E  Q    E  E  E  E     Q    E  Q    Q    E     E  E  Q    E  E  E  E   
-------------------------|-----------------------|-------------------------|
-------------------------|-----------------------|-------------------------|
-------------------------|-----------------------|-------------------------|
--L--3--2----2--0--5--3--|--2----3--2----0----2--|--L--3--2----2--0--3--5--|
--L--3--2----2--0--5--3--|--2----3--2----0----2--|--L--3--2----2--0--3--5--|
--L--3--2----2--0--5--3--|--2----3--2----0----2--|--L--3--2----2--0--3--5--|


  Q    E  Q    Q    E     E  E  E  E  E  Q    E     H.            Q     
-----------------------|-------------------------|---------------------|
-----------------------|-------------------------|---------------------|
-----------------------|-------------------------|---------------------|
--2----3--2----0----2--|--L-----------2--3----3--|--7------------10----|
--2----3--2----0----2--|--L--x--x--x--2--3----3--|--7------------10----|
--2----3--2----0----2--|--L--x--x--x--2--3----3--|--7------------10----|


  Q    Q.     Q.        W                   W                 
---------------------|-------------------|-------------------|
---------------------|-------------------|-------------------|
---------------------|-------------------|-------------------|
--L----2------5------|--3----------------|--2----------------|
--L----2------5------|--3----------------|--2----------------|
--L----2------5------|--3----------------|--2----------------|


  H.            Q       Q    Q.     Q.        W                 
---------------------|---------------------|-------------------|
---------------------|---------------------|-------------------|
---------------------|---------------------|-------------------|
--7------------10----|--L----2------5------|--3----------------|
--7------------10----|--L----2------5------|--3----------------|
--7------------10----|--L----2------5------|--3----------------|


  W                   H.            Q       Q    Q.     Q.      
-------------------|---------------------|---------------------|
-------------------|---------------------|---------------------|
-------------------|---------------------|---------------------|
--5----------------|--7------------10----|--L----2------5------|
--5----------------|--7------------10----|--L----2------5------|
--5----------------|--7------------10----|--L----2------5------|


  W                   W                   W                   W                 
-------------------|-------------------|-------------------|-------------------|
-------------------|-------------------|-------------------|-------------------|
-------------------|-------------------|-------------------|-------------------|
--3----------------|--2----------------|--0----------------|--L----------------|
--3----------------|--2----------------|--0----------------|--L----------------|
--3----------------|--2----------------|--0----------------|--L----------------|


  W                   W                   W                   W                 
-------------------|-------------------|-------------------|-------------------|
-------------------|-------------------|-------------------|-------------------|
-------------------|-------------------|-------------------|-------------------|
--3----------------|--L----------------|--2----------------|-------------------|
--3----------------|--L----------------|--2----------------|-------------------|
--3----------------|--L----------------|--2----------------|--L----------------|


  W                   W                   S S E  E  Q    Q    E   
-------------------|-------------------|-------------------------|
-------------------|-------------------|-------------------------|
-------------------|-------------------|-------------------------|
--2----------------|--L----------------|-------------------------|
--2----------------|--L----------------|-------------------------|
--2----------------|--L----------------|--2-2-2--3--2----0----2--|


  E  E  Q    H           S S E  E  Q    Q    E     E  E  Q    E  Q.      
----------------------|-------------------------|-----------------------|
----------------------|-------------------------|-----------------------|
----------------------|-------------------------|-----------------------|
--L-------------------|-------------------------|-----------------------|
--L-------------------|-------------------------|-----------------------|
--L--2--3----2--------|--2-2-2--3--2----0----2--|--L--2--0----5--3------|


  S S E  E  Q    Q    E     E  E  Q    H           S S E  E  Q    Q    E   
-------------------------|----------------------|-------------------------|
-------------------------|----------------------|-------------------------|
-------------------------|----------------------|-------------------------|
-------------------------|--L-------------------|-------------------------|
-------------------------|--L-------------------|-------------------------|
--2-2-2--3--2----0----2--|--L--2--3----2--------|--2-2-2--3--2----0----2--|


  E  E  Q     E  Q.        S S E  E  Q    Q    E     E  E  Q    H         
-------------10---------|-------------------------|----------------------|
-----------------9------|-------------------------|----------------------|
------------------------|-------------------------|----------------------|
------------------------|--2-2-2--3--2----0----2--|--L--2--3----2--------|
------------------------|--2-2-2--3--2----0----2--|--L--2--3----2--------|
--L--2--0---------------|--2-2-2--3--2----0----2--|--L--2--3----2--------|


  S S E  E  Q    Q    E     E  E  Q     H           S S E  E  Q    Q    E   
-------------------------|-------------10--------|-------------------------|
-------------------------|-----------------------|-------------------------|
-------------------------|-----------------------|-------------------------|
--2-2-2--3--2----0----2--|--L--2--0--------------|--2-2-2--3--2----0----2--|
--2-2-2--3--2----0----2--|--L--2--0--------------|--2-2-2--3--2----0----2--|
--2-2-2--3--2----0----2--|--L--2--0--------------|--2-2-2--3--2----0----2--|


  E  E  Q    H           S S E  E  Q    Q    E     E  E  Q     H         
----------------------|-------------------------|-------------10--------|
----------------------|-------------------------|-----------------------|
----------------------|-------------------------|-----------------------|
--L--2--3----2--------|--2-2-2--3--2----0----2--|--L--2--0--------------|
--L--2--3----2--------|--2-2-2--3--2----0----2--|--L--2--0--------------|
--L--2--3----2--------|--2-2-2--3--2----0----2--|--L--2--0--------------|


  S S E  E  Q    Q    E     E  E  Q    H           S S E  E  Q    Q    E   
-------------------------|----------------------|-------------------------|
-------------------------|----------------------|-------------------------|
-------------------------|----------------------|-------------------------|
--2-2-2--3--2----0----2--|--L--2--3----2--------|--2-2-2--3--2----0----2--|
--2-2-2--3--2----0----2--|--L--2--3----2--------|--2-2-2--3--2----0----2--|
--2-2-2--3--2----0----2--|--L--2--3----2--------|--2-2-2--3--2----0----2--|


  E  E  Q     H           S S E  E  Q    Q    E     E  E  Q    H         
-------------10--------|-------------------------|----------------------|
-----------------------|-------------------------|----------------------|
-----------------------|-------------------------|----------------------|
--L--2--0--------------|--2-2-2--3--2----0----2--|--L--2--3----2--------|
--L--2--0--------------|--2-2-2--3--2----0----2--|--L--2--3----2--------|
--L--2--0--------------|--2-2-2--3--2----0----2--|--L--2--3----2--------|


  S S E  E  Q    Q    E     E  E  Q    H           H.            Q     
-------------------------|----------------------|---------------------|
-------------------------|----------------------|---------------------|
-------------------------|----------------------|---------------------|
--2-2-2--3--2----0----2--|--L--2--0-------------|--7------------10----|
--2-2-2--3--2----0----2--|--L--2--0-------------|--7------------10----|
--2-2-2--3--2----0----2--|--L--2--0-------------|--7------------10----|


  Q    Q.     Q.        W                   W                 
---------------------|-------------------|-------------------|
---------------------|-------------------|-------------------|
---------------------|-------------------|-------------------|
--L----2------5------|--3----------------|--2----------------|
--L----2------5------|--3----------------|--2----------------|
--L----2------5------|--3----------------|--2----------------|


  H.            Q       Q    Q.     Q.        W                 
---------------------|---------------------|-------------------|
---------------------|---------------------|-------------------|
---------------------|---------------------|-------------------|
--7------------10----|--L----2------5------|--3----------------|
--7------------10----|--L----2------5------|--3----------------|
--7------------10----|--L----2------5------|--3----------------|


  W                   H.            Q       Q    Q.     Q.      
-------------------|---------------------|---------------------|
-------------------|---------------------|---------------------|
-------------------|---------------------|---------------------|
--5----------------|--7------------10----|-------2------5------|
--5----------------|--7------------10----|-------2------5------|
--5----------------|--7------------10----|-------2------5------|


  W                   W                   W                   W                 
-------------------|-------------------|-------------------|-------------------|
-------------------|-------------------|-------------------|-------------------|
-------------------|-------------------|-------------------|-------------------|
--3----------------|--2----------------|--0----------------|--L----------------|
--3----------------|--2----------------|--0----------------|--L----------------|
--3----------------|--2----------------|--0----------------|--L----------------|


  W                   W                   Q    E  Q    Q    E   
-------------------|-------------------|-----------------------|
-------------------|-------------------|-----------------------|
-------------------|-------------------|-----------------------|
--3----------------|--L----------------|--2----3--2----0----2--|
--3----------------|--L----------------|--2----3--2----0----2--|
--3----------------|--L----------------|--2----3--2----0----2--|


  E  E  Q    E  E  E  E     Q    E  Q    Q    E     E  E  Q    E  E  E  E   
-------------------------|-----------------------|-------------------------|
-------------------------|-----------------------|-------------------------|
-------------------------|-----------------------|-------------------------|
--L--3--2----2--0--3--5--|--2----3--2----0----2--|--L--3--2----2--0--5--3--|
--L--3--2----2--0--3--5--|--2----3--2----0----2--|--L--3--2----2--0--5--3--|
--L--3--2----2--0--3--5--|--2----3--2----0----2--|--L--3--2----2--0--5--3--|


  Q    E  Q    Q    E     E  E  Q    E  E  E  E     Q    E  Q    Q    E   
-----------------------|-------------------------|-----------------------|
-----------------------|-------------------------|-----------------------|
-----------------------|-------------------------|-----------------------|
--2----3--2----0----2--|--L--3--2----2--0--3--5--|--2----3--2----0----2--|
--2----3--2----0----2--|--L--3--2----2--0--3--5--|--2----3--2----0----2--|
--2----3--2----0----2--|--L--3--2----2--0--3--5--|--2----3--2----0----2--|


  E  E  E  E  E  Q    E     Q    E  Q    Q    E     E  E  Q    E  E  E  E   
-------------------------|-----------------------|-------------------------|
-------------------------|-----------------------|-------------------------|
-------------------------|-----------------------|-------------------------|
--L-----------2--3----3--|--2----3--2----0----2--|--L--3--2----2--0--3--5--|
--L--x--x--x--2--3----3--|--2----3--2----0----2--|--L--3--2----2--0--3--5--|
--L--x--x--x--2--3----3--|--2----3--2----0----2--|--L--3--2----2--0--3--5--|


  Q    E  Q    Q    E     E  E  Q    E  E  E  E     Q    E  Q    Q    E   
-----------------------|-------------------------|-----------------------|
-----------------------|-------------------------|-----------------------|
-----------------------|-------------------------|-----------------------|
--2----3--2----0----2--|--L--3--2----2--0--5--3--|--2----3--2----0----2--|
--2----3--2----0----2--|--L--3--2----2--0--5--3--|--2----3--2----0----2--|
--2----3--2----0----2--|--L--3--2----2--0--5--3--|--2----3--2----0----2--|


  E  E  Q    E  E  E  E     Q    E  Q    Q    E     E  E  Q    H          
-------------------------|-----------------------|----------------------||
-------------------------|-----------------------|----------------------||
-------------------------|-----------------------|----------------------||
--L--3--2----2--0--3--5--|--2----3--2----0----2--|--L--2--0----2--------||
--L--3--2----2--0--3--5--|--2----3--2----0----2--|--L--2--0----2--------||
--L--3--2----2--0--3--5--|--2----3--2----0----2--|--L--2--0----2--------||




Duration Legend
---------------
W - whole
H - half
Q - quarter
E - 8th
S - 16th
T - 32nd
X - 64th
. - note dotted
|-n-|  - n-tuplets


Tablature Legend
----------------
L - tied note
x - dead note
g - grace note
(n) - ghost note
> - accentuded note
NH - natural harmonic
AH - artificial harmonic
TH - tapped harmonic
SH - semi harmonic
PH - pitch harmonic
h - hammer on
p - pull off
b - bend
br - bendRelease
pb - preBend
pbr - preBendRelease
brb - bendReleaseBend
\n/ - tremolo bar dip
\n - tremolo bar dive
-/n - tremolo bar Release up
/n\ - tremolo bar inverted dip
/n - tremolo bar return
-\n - tremolo bar Release down
S - shift slide
s - legato slide
/ -  slide into from below or out of upwards
\ -  slide into from above or out of downwards
~ - vibrato
W - wide vibrato
tr - trill
TP - tremolo picking
T - tapping
S - slap
P - pop
< - fade in
^ - brush up
v - brush down
1 comment total.
0 reply
michaelowns4 wrote on February 15 2009, 12:13 am

Wow!I like the fact you put in the note duration,you would have to be the first I've seen to do that,if you don't mind I'm going to use it for teaching lol xp

I want to post or [tab]
guest
You may want to rate the tab now too:
select rating
Please do not post tabs as comments. Select "correction" instead!