Oops, an error
Loading. Please wait.

Sons Of Plunder Tab

ver1
ver1

Whole song

Interactive

More versions @911Tabs.com
12,466 views 9 this week
8 commentsread comments
1 2 3 4 5
excellent!
x 8
Autoscroll
+/-
esc
set tempo
stop
Contributor
Difficulty
Tuning
intermediate
D A D G B E
Hey! There's an official Ultimate Guitar app which is ideal
for learning songs when you're away from computer. Get the app
WARNING: You are trying to view
                                    content from Ultimate-Guitar.com
                                    in an unauthorized application,
                                    which is prohibited.

                                    Please use an official Ultimate
                                    Guitar Tabs application for iPhone,
                                    iPad or Android to access legitimate
                                    chords, guitar, bass, and drum tabs
                                    from Ultimate-Guitar.com database.

                                    Type "ultimate guitar tabs" in Apple
                                    App Store's or Android Market's
                                    search to find the application.
----Sons of Plunder + Disturbed-----

-Tuning is: All Notes Half Step Down + Drop Db

------Db Ab Db Gb Bb Eb (low to high)------


Tabbed By: Jay Logan
Email: Subbliminal@DONTSPAM@hotmail.com 
           -Just remove the 'DONTSPAM of course.


Legend - I suggest looking over it, there are some descriptions, as well as special cases.

 /  - Slide Right (If only 1 number just slide from anywhere towards it left to right)
 \  - Slide left (If only 1 number just slide from anywhere towards it right to left)
 ^  - Bend (5^7= bend the 5 fret until it sounds like 7, or 5^ = quick bend)
(~) - Vibrato (5(~) = Wiggle the string shown)
(5) - Natural Harmonic (Just put your finger lightly over the actually fret)
<5> - Artificial Harmonic (You pick the string and let your thumb touch as well while
holding the fret shown)
 x  - Mute that string
 .  - Palm Mute (Mute the note shown with picking hand palm, the '.' is under the note)
 h  - Hammer On (ie..3h5 = pic the 3rd fret and then hammer your finger into the 5th without picking)
 p  - Pull Off (opposite of hammer on, 5p3 = pic the 5th while holding the 3rd as well,
then pull your finger of the 5th)
=#= - Ghost note (A note that you don't NEED to play or is played quietly)


Duration Legend
---------------
W - whole
H - half
Q - quarter
E - 8th
S - 16th
T - 32nd
X - 64th
. - note dotted
|-n-|  - n-tuplets
L - Tied Note



Note: I have also done the bass for the song I just need to tidy it up.
Guitar Pro spits out these things messy.




Time: 4/4
Bpm: 100



---Intro---


     S S S  S S S  S S S  S S S  S S  S S     S S S  S S S  S S S  S S S  S S  S S
Eb|----------------------------------------|-----------------------------------------|
Bb|----------------------------------------|-----------------------------------------|
Gb|----------------------------------------|-----------------------------------------|
Db|----------------------------------------|-----------------------------------------|
Ab|----------------------------------------|-----------------------------------------|
Db|--3p0-0--5p0-0--3p0-0--3p0-0--5p0--3h5--|--3p0-0--5p0-0--3p0-0--3p0-0--6p5--3h5---|
     . . .  . . .  . . .  . . .  . .  . .     . . .  . . .  . . .  . . .  . .  . .



     S S S  S S S  S S S  S S S  S S  S S     S S S  S S S  S S S  S S S  S S  S S
Eb|----------------------------------------|-----------------------------------------|
Bb|----------------------------------------|-----------------------------------------|
Gb|----------------------------------------|-----------------------------------------|
Db|----------------------------------------|-----------------------------------------|
Ab|----------------------------------------|-----------------------------------------|
Db|--3p0-0--5p0-0--3p0-0--3p0-0--5p0--3h5--|--3p0-0--5p0-0--3p0-0--3p0-0--6p0--0h1---|
     . . .  . . .  . . .  . . .  . .  . .     . . .  . . .  . . .  . . .  . .  . .



     S S S  S S S  S S S  S S S  S S  S S     S S S  S S S  S S S  S S S  S S  S S
Eb|----------------------------------------|-----------------------------------------|
Bb|----------------------------------------|-----------------------------------------|
Gb|----------------------------------------|-----------------------------------------|
Db|----------------------------------------|-----------------------------------------|
Ab|----------------------------------------|-----------------------------------------|
Db|--3p0-0--5p0-0--3p0-0--3p0-0--5p0--3h5--|--3p0-0--5p0-0--3p0-0--3p0-0--6p5--3h5---|



     S S S  S S S  S S S  S S S  S S  S S     S S S  S S S  S S S  S S S  S S  S S
Eb|----------------------------------------|-----------------------------------------|
Bb|----------------------------------------|-----------------------------------------|
Gb|----------------------------------------|-----------------------------------------|
Db|----------------------------------------|-----------------------------------------|
Ab|----------------------------------------|-----------------------------------------|
Db|--3p0-0--5p0-0--3p0-0--3p0-0--5p0--3h5--|--3p0-0--5p0-0--3p0-0--3p0-0--6p0--0h1---|





---Verse---


     S S S  S S S  S S S  S S S  S S  S S     S S S  S S S  S S S  S S S  S S  S S
Eb|----------------------------------------|-----------------------------------------|
Bb|----------------------------------------|-----------------------------------------|
Gb|----------------------------------------|-----------------------------------------|
Db|----------------------------------------|-----------------------------------------|
Ab|----------------------------------------|-----------------------------------------|
Db|--3p0-0--5p0-0--3p0-0--3p0-0--5p0--3h5--|--3p0-0--5p0-0--3p0-0--3p0-0--6p5--3h5---|
     . . .  . . .  . . .  . . .  . .  . .     . . .  . . .  . . .  . . .  . .  . .



     S S S  S S S  S S S  S S S  S S  S S     S S S  S S S  S S S  S S S  S S  S S
Eb|----------------------------------------|-----------------------------------------|
Bb|----------------------------------------|-----------------------------------------|
Gb|----------------------------------------|-----------------------------------------|
Db|----------------------------------------|-----------------------------------------|
Ab|----------------------------------------|-----------------------------------------|
Db|--3p0-0--5p0-0--3p0-0--3p0-0--5p0--3h5--|--3p0-0--5p0-0--3p0-0--3p0-0--6p0--0h1---|
     . . .  . . .  . . .  . . .  . .  . .     . . .  . . .  . . .  . . .  . .  . .



     S S S  S S S  S S S  S S S  S S  S S     S S S  S S S  S S S  S S S  S S  S S
Eb|----------------------------------------|-----------------------------------------|
Bb|----------------------------------------|-----------------------------------------|
Gb|----------------------------------------|-----------------------------------------|
Db|----------------------------------------|-----------------------------------------|
Ab|----------------------------------------|-----------------------------------------|
Db|--3p0-0--5p0-0--3p0-0--3p0-0--5p0--3h5--|--3p0-0--5p0-0--3p0-0--3p0-0--6p5--3h5---|



     S S S  S S S  S S S  S S S  S S  S S     S S S  S S S  S S S  S S S  S S  S S
Eb|----------------------------------------|-----------------------------------------|
Bb|----------------------------------------|-----------------------------------------|
Gb|----------------------------------------|-----------------------------------------|
Db|----------------------------------------|-----------------------------------------|
Ab|----------------------------------------|-----------------------------------------|
Db|--3p0-0--5p0-0--3p0-0--3p0-0--5p0--3h5--|--3p0-0--5p0-0--3p0-0--3p0-0--6p0--0h1---|






---Pre-Chorus---


     E.  E.  E.  E.  E  E       E.  E.  E.  E  S S S E
Eb|-------------------------|----------------------------|
Bb|-------------------------|----------------------------|
Gb|-------------------------|----------------------------|
Db|--0---6---0---3---0--6---|---0---6---3---5--------3---|
Ab|--0---6---0---3---0--6---|---0---6---3---5--3-6-6-3---|
Db|--0---6---0---3---0--6---|---0---6---3---5--3-6-6-3---|



    S S S E.  E.  E.  E  E      E.  E.  E.  E  S S S E
Eb|-------------------------|----------------------------|
Bb|-------------------------|----------------------------|
Gb|-------------------------|----------------------------|
Db|-------6---0---3---0--6--|---0---6---3---5--------3---|
Ab|-0-0-0-6---0---3---0--6--|---0---6---3---5--3-5-6-3---|
Db|-0-0-0-6---0---3---0--6--|---0---6---3---5--3-5-6-3---|
    . . .



---Chorus---


      S   S   S   S   S   S     S   S   S   S   S   S     S   S   S   S
Eb|----------------------------------------------------------------------|
Bb|----------------------------------------------------------------------|
Gb|----------------------------------------------------------------------|
Db|--12--12--12--12--12--12----14--14--14--14--14--14----15--15--15--15--|
Ab|--12--12--12--12--12--12----12--12--12--12--12--12----12--12--12--12--|
Db|--12--12--12--12--12--12----12--12--12--12--12--12----12--12--12--12--|



     S  S  S  S  S  S     S   S   S   S   S   S      S   S   S   S
Eb|----------------------------------------------------------------------|
Bb|----------------------------------------------------------------------|
Gb|--9--9--9--9--9--9----------------------------------------------------|
Db|--7--7--7--7--7--7-----12--12--12--12--12--12-----10--10--10--10------|
Ab|--7--7--7--7--7--7-----7---7---7---7---7---7------7---7---7---7-------|
Db|--7--7--7--7--7--7-----7---7---7---7---7---7------7---7---7---7-------|



     S   S   S   S   S   S      S  S  S  S  S  S     S   S   S   S
Eb|----------------------------------------------------------------------|
Bb|----------------------------------------------------------------------|
Gb|-----------------------------9--9--9--9--9--9-----10--10--10--10------|
Db|--12--12--12--12--12--12-----8--8--8--8--8--8-----8---8---8---8-------|
Ab|--8---8---8---8---8---8------8--8--8--8--8--8-----8---8---8---8-------|
Db|--8---8---8---8---8---8------8--8--8--8--8--8-----8---8---8---8-------|



      S   S   S   S   S   S     S   S   S   S   S   S     S   S   S   S
Eb|----------------------------------------------------------------------|
Bb|----------------------------------------------------------------------|
Gb|--12--12--12--12--12--12----------------------------------------------|
Db|--10--10--10--10--10--10----14--14--14--14--14--14----10--10--10--10--|
Ab|--10--10--10--10--10--10----10--10--10--10--10--10----10--10--10--10--|
Db|--10--10--10--10--10--10----10--10--10--10--10--10----10--10--10--10--|



      S   S   S   S   S   S     S   S   S   S   S   S     S   S   S   S
Eb|----------------------------------------------------------------------|
Bb|----------------------------------------------------------------------|
Gb|----------------------------------------------------------------------|
Db|--12--12--12--12--12--12----14--14--14--14--14--14----15--15--15--15--|
Ab|--12--12--12--12--12--12----12--12--12--12--12--12----12--12--12--12--|
Db|--12--12--12--12--12--12----12--12--12--12--12--12----12--12--12--12--|



     S  S  S  S  S  S     S   S   S   S   S   S      S   S   S   S
Eb|----------------------------------------------------------------------|
Bb|----------------------------------------------------------------------|
Gb|--9--9--9--9--9--9----------------------------------------------------|
Db|--7--7--7--7--7--7-----12--12--12--12--12--12-----10--10--10--10------|
Ab|--7--7--7--7--7--7-----7---7---7---7---7---7------7---7---7---7-------|
Db|--7--7--7--7--7--7-----7---7---7---7---7---7------7---7---7---7-------|



     E.  E.  E.  E.  E  E       S S S S. S. S S S S. T S E  E  
Eb|-------------------------|----------------------------------|
Bb|-------------------------|----------------------------------|
Gb|-------------------------|----------------------------------|
Db|--5---5---5---3---5--3---|---3-5-5-5-----3-5-5-5----0-3--5--|
Ab|--3---3---3---3---3--3---|---3-5-5-5-----3-5-5-5----0-3--5--|
Db|--3---3---3---3---3--3---|---3-5-5-5-----3-5-5-5----0-3--5--|




---Post Chorus---


     S S S  S S S  S S S  S S S  S S  S S
Eb|----------------------------------------|
Bb|----------------------------------------|
Gb|----------------------------------------|
Db|----------------------------------------|
Ab|----------------------------------------|
Db|--3p0-0--5p0-0--3p0-0--3p0-0--5p0--3h5--|
     . . .  . . .  . . .  . . .  . .  . .





---Verse 2---


     E.  E.  E.  E.  E  S  S     E.  E.  E.  E  S  S  S  E
Eb|---------------------------|-----------------------------|
Bb|---------------------------|-----------------------------|
Gb|---------------------------|-----------------------------|
Db|---------------------------|--------------------------1--|
Ab|--0---0---0---0---0--0--0--|--0---0---0---0--0--1--0--1--|
Db|--0---0---0---0---0--0--0--|--0---0---0---0--0--1--0--1--|
     .   .   .   .   .  .  .     .   .   .   .  .  .  .  .



   E.  E.  E.  E.  E  S  S     E.  E.  E.  E  S  S  S  E
Eb|---------------------------|-----------------------------|
Bb|---------------------------|-----------------------------|
Gb|---------------------------|-----------------------------|
Db|---------------------------|--------------------------1--|
Ab|--0---0---0---0---0--0--0--|--0---0---0---0--0--1--0--1--|
Db|--0---0---0---0---0--0--0--|--0---0---0---0--0--1--0--1--|
     .   .   .   .   .  .  .     .   .   .   .  .  .  .  .



     S S S  S S S  S S S  S S S  S S  S S     S S S  S S S  S S S  S S S  S S  S S
Eb|----------------------------------------|-----------------------------------------|
Bb|----------------------------------------|-----------------------------------------|
Gb|----------------------------------------|-----------------------------------------|
Db|----------------------------------------|-----------------------------------------|
Ab|----------------------------------------|-----------------------------------------|
Db|--3p0-0--5p0-0--3p0-0--3p0-0--5p0--3h5--|--3p0-0--5p0-0--3p0-0--3p0-0--6p5--3h5---|



     S S S  S S S  S S S  S S S  S S  S S     S S S  S S S  S S S  S S S  S S  S S
Eb|----------------------------------------|-----------------------------------------|
Bb|----------------------------------------|-----------------------------------------|
Gb|----------------------------------------|-----------------------------------------|
Db|----------------------------------------|-----------------------------------------|
Ab|----------------------------------------|-----------------------------------------|
Db|--3p0-0--5p0-0--3p0-0--3p0-0--5p0--3h5--|--3p0-0--5p0-0--3p0-0--3p0-0--6p0--0h1---|






---Pre-Chorus 2---


     E.  E.  E.  E.  E  E       E.  E.  E.  E  S S S E
Eb|-------------------------|----------------------------|
Bb|-------------------------|----------------------------|
Gb|-------------------------|----------------------------|
Db|--0---6---0---3---0--6---|---0---6---3---5--------3---|
Ab|--0---6---0---3---0--6---|---0---6---3---5--3-6-6-3---|
Db|--0---6---0---3---0--6---|---0---6---3---5--3-6-6-3---|



    S S S E.  E.  E.  E  E      E.  E.  E.  E  S S S E
Eb|-------------------------|----------------------------|
Bb|-------------------------|----------------------------|
Gb|-------------------------|----------------------------|
Db|-------6---0---3---0--6--|---0---6---3---5--------3---|
Ab|-0-0-0-6---0---3---0--6--|---0---6---3---5--3-5-6-3---|
Db|-0-0-0-6---0---3---0--6--|---0---6---3---5--3-5-6-3---|
    . . .



---Chorus 2---


      S   S   S   S   S   S     S   S   S   S   S   S     S   S   S   S
Eb|----------------------------------------------------------------------|
Bb|----------------------------------------------------------------------|
Gb|----------------------------------------------------------------------|
Db|--12--12--12--12--12--12----14--14--14--14--14--14----15--15--15--15--|
Ab|--12--12--12--12--12--12----12--12--12--12--12--12----12--12--12--12--|
Db|--12--12--12--12--12--12----12--12--12--12--12--12----12--12--12--12--|



     S  S  S  S  S  S     S   S   S   S   S   S      S   S   S   S
Eb|----------------------------------------------------------------------|
Bb|----------------------------------------------------------------------|
Gb|--9--9--9--9--9--9----------------------------------------------------|
Db|--7--7--7--7--7--7-----12--12--12--12--12--12-----10--10--10--10------|
Ab|--7--7--7--7--7--7-----7---7---7---7---7---7------7---7---7---7-------|
Db|--7--7--7--7--7--7-----7---7---7---7---7---7------7---7---7---7-------|



     S   S   S   S   S   S      S  S  S  S  S  S     S   S   S   S
Eb|----------------------------------------------------------------------|
Bb|----------------------------------------------------------------------|
Gb|-----------------------------9--9--9--9--9--9-----10--10--10--10------|
Db|--12--12--12--12--12--12-----8--8--8--8--8--8-----8---8---8---8-------|
Ab|--8---8---8---8---8---8------8--8--8--8--8--8-----8---8---8---8-------|
Db|--8---8---8---8---8---8------8--8--8--8--8--8-----8---8---8---8-------|



      S   S   S   S   S   S     S   S   S   S   S   S     S   S   S   S
Eb|----------------------------------------------------------------------|
Bb|----------------------------------------------------------------------|
Gb|--12--12--12--12--12--12----------------------------------------------|
Db|--10--10--10--10--10--10----14--14--14--14--14--14----10--10--10--10--|
Ab|--10--10--10--10--10--10----10--10--10--10--10--10----10--10--10--10--|
Db|--10--10--10--10--10--10----10--10--10--10--10--10----10--10--10--10--|



      S   S   S   S   S   S     S   S   S   S   S   S     S   S   S   S
Eb|----------------------------------------------------------------------|
Bb|----------------------------------------------------------------------|
Gb|----------------------------------------------------------------------|
Db|--12--12--12--12--12--12----14--14--14--14--14--14----15--15--15--15--|
Ab|--12--12--12--12--12--12----12--12--12--12--12--12----12--12--12--12--|
Db|--12--12--12--12--12--12----12--12--12--12--12--12----12--12--12--12--|



     S  S  S  S  S  S     S   S   S   S   S   S      S   S   S   S
Eb|----------------------------------------------------------------------|
Bb|----------------------------------------------------------------------|
Gb|--9--9--9--9--9--9----------------------------------------------------|
Db|--7--7--7--7--7--7-----12--12--12--12--12--12-----10--10--10--10------|
Ab|--7--7--7--7--7--7-----7---7---7---7---7---7------7---7---7---7-------|
Db|--7--7--7--7--7--7-----7---7---7---7---7---7------7---7---7---7-------|



     E.  E.  E.  E.  E  E       S S S S. S. S S S S. T S E  E  
Eb|-------------------------|----------------------------------|
Bb|-------------------------|----------------------------------|
Gb|-------------------------|----------------------------------|
Db|--5---5---5---3---5--3---|---3-5-5-5-----3-5-5-5----0-3--5--|
Ab|--3---3---3---3---3--3---|---3-5-5-5-----3-5-5-5----0-3--5--|
Db|--3---3---3---3---3--3---|---3-5-5-5-----3-5-5-5----0-3--5--|




---Interlude Part 1---

=#= - Ghost note (A note that you don't NEED to play or is played quietly)

Note: Lots of feed back on that second chord.


    W       W         W     W     W     W     W     W
Eb|-------|-------|-------|-----|-----|-----|-----|-----|
Bb|-3-----|-L-----|--=6=--|-----|-----|-----|-----|-----|
Gb|-2-----|-L-----|--=7=--|-----|-----|-----|-----|-----|
Db|-0-----|-L-----|---7---|-L---|-L---|-L---|-L---|-L---|
Ab|-0-----|-L-----|---5---|-L---|-L---|-L---|-L---|-L---|
Db|-0-----|-L-----|---0---|-L---|-L---|-L---|-L---|-L---|




---Interlude Part 2---

Note: Lyrics come back in here. There is a hard to hear guitar part panned to the left speaker
for the guitar to have fun with.
As for the high pitch twang sound... well as far as I can tell it not a guitar because it seems
to fall into the 'percussion' (ie. non melody ...happy fun beat-ness thing...)


    E  S S  S  S  S  S S S  S  S  S  S S S   E  S S  S  S  S  S S S S S  S  S S S
Eb|----------------------------------------|---------------------------------------|
Bb|----------------------------------------|---------------------------------------|
Gb|----------------------------------------|---------------------------------------|
Db|---------3---------------3--------------|---------3-------------------3---------|
Ab|----3-5-----5-----5-3-5-----5-----5-3-5-|----3-5-----5-----5-3-5-3-5-----5-3-5--|
Db|-0--------------------------------------|-x-------------------------------------|
    .  . .  .  .     . . .  .  .     . . .      . .  .  .     . . . . .  .  . . .



    E  S S  S  S  S  S S S  S  S  S  S S S   E  S S  S  S  S  S S S S S  S  S S S
Eb|----------------------------------------|---------------------------------------|
Bb|----------------------------------------|---------------------------------------|
Gb|----------------------------------------|---------------------------------------|
Db|---------3---------------3--------------|---------3-------------------3---------|
Ab|----3-5-----5-----5-3-5-----5-----5-3-5-|----3-5-----5-----5-3-5-3-5-----5-3-5--|
Db|-0--------------------------------------|-x-------------------------------------|
    .  . .  .  .     . . .  .  .     . . .      . .  .  .     . . . . .  .  . . .



    E  S S  S  S  S  S S S  S  S  S  S S S   E  S S  S  S  S  S S S S S  S  S S S
Eb|----------------------------------------|---------------------------------------|
Bb|----------------------------------------|---------------------------------------|
Gb|----------------------------------------|---------------------------------------|
Db|---------3---------------3--------------|---------3-------------------3---------|
Ab|----3-5-----5-----5-3-5-----5-----5-3-5-|----3-5-----5-----5-3-5-3-5-----5-3-5--|
Db|-0--------------------------------------|-x-------------------------------------|
    .  . .  .  .     . . .  .  .     . . .      . .  .  .     . . . . .  .  . . .



    E  S S  S  S  S  S S S  S  S  S  S S S   E  S S  S  S  S  S S S S S  S  S S S
Eb|----------------------------------------|---------------------------------------|
Bb|----------------------------------------|---------------------------------------|
Gb|----------------------------------------|---------------------------------------|
Db|---------3---------------3--------------|---------3-------------------3---------|
Ab|----3-5-----5-----5-3-5-----5-----5-3-5-|----3-5-----5-----5-3-5-3-5-----5-3-5--|
Db|----------------------------------------|---------------------------------------|
       . .  .  .     . . .  .  .     . . .      . .  .  .     . . . . .  .  . . .




---Breakdown---


     E  S  S  S S  S  S S  S  S S  S  S S S     E  S  S  S S  S  S S  S  S S  S   S  S  S
Eb|------------------------------------------|--------------------------------------------|
Bb|------------------------------------------|--------------------------------------------|
Gb|------------------------------------------|--------------------------------------------|
Db|------------------------------------------|-----------------------------12/11----------|
Ab|--0--10-12---12-13-0-10-12---12-13-0-8-10-|--0--10-12---12-13-0-10-12---10/9---0-10-12-|
Db|--0--10-12---12-13-0-10-12---12-13-0-8-10-|--0--10-12---12-13-0-10-12----------0-10-12-|



     E   S  S S  S  S S  S  S S  S  S S S  S    E.  E.  E.  E  S S E.
Eb|------------------------------------------|-------------------------|
Bb|------------------------------------------|-------------------------|
Gb|------------------------------------------|-------------------------|
Db|------------------------------------------|----------8---8--8-8-----|
Ab|--0--10-12---12-13-0-10-12---12-13-0-8-10-|--8---8---6---6--6-6-7---|
Db|--0--10-12---12-13-0-10-12---12-13-0-8-10-|--8---8--------------7---|



     E  S  S  S S  S  S S  S  S S  S  S S S     E  S  S  S S  S  S S  S  S S  S   S  S  S
Eb|------------------------------------------|--------------------------------------------|
Bb|------------------------------------------|--------------------------------------------|
Gb|------------------------------------------|--------------------------------------------|
Db|------------------------------------------|-----------------------------12/11----------|
Ab|--0--10-12---12-13-0-10-12---12-13-0-8-10-|--0--10-12---12-13-0-10-12---10/9---0-10-12-|
Db|--0--10-12---12-13-0-10-12---12-13-0-8-10-|--0--10-12---12-13-0-10-12----------0-10-12-|



     E   S  S S  S  S S  S  S S  S  S S S  S    E.  E.  E.  E  S S E.
Eb|------------------------------------------|-------------------------|
Bb|------------------------------------------|-------------------------|
Gb|------------------------------------------|-------------------------|
Db|------------------------------------------|----------8---8--8-8-----|
Ab|--0--10-12---12-13-0-10-12---12-13-0-8-10-|--8---8---6---6--6-6-7---|
Db|--0--10-12---12-13-0-10-12---12-13-0-8-10-|--8---8--------------7---|





---Chorus 3---


      S   S   S   S   S   S     S   S   S   S   S   S     S   S   S   S
Eb|----------------------------------------------------------------------|
Bb|----------------------------------------------------------------------|
Gb|----------------------------------------------------------------------|
Db|--12--12--12--12--12--12----14--14--14--14--14--14----15--15--15--15--|
Ab|--12--12--12--12--12--12----12--12--12--12--12--12----12--12--12--12--|
Db|--12--12--12--12--12--12----12--12--12--12--12--12----12--12--12--12--|



     S  S  S  S  S  S     S   S   S   S   S   S      S   S   S   S
Eb|----------------------------------------------------------------------|
Bb|----------------------------------------------------------------------|
Gb|--9--9--9--9--9--9----------------------------------------------------|
Db|--7--7--7--7--7--7-----12--12--12--12--12--12-----10--10--10--10------|
Ab|--7--7--7--7--7--7-----7---7---7---7---7---7------7---7---7---7-------|
Db|--7--7--7--7--7--7-----7---7---7---7---7---7------7---7---7---7-------|



     S   S   S   S   S   S      S  S  S  S  S  S     S   S   S   S
Eb|----------------------------------------------------------------------|
Bb|----------------------------------------------------------------------|
Gb|-----------------------------9--9--9--9--9--9-----10--10--10--10------|
Db|--12--12--12--12--12--12-----8--8--8--8--8--8-----8---8---8---8-------|
Ab|--8---8---8---8---8---8------8--8--8--8--8--8-----8---8---8---8-------|
Db|--8---8---8---8---8---8------8--8--8--8--8--8-----8---8---8---8-------|



      S   S   S   S   S   S     S   S   S   S   S   S     S   S   S   S
Eb|----------------------------------------------------------------------|
Bb|----------------------------------------------------------------------|
Gb|--12--12--12--12--12--12----------------------------------------------|
Db|--10--10--10--10--10--10----14--14--14--14--14--14----10--10--10--10--|
Ab|--10--10--10--10--10--10----10--10--10--10--10--10----10--10--10--10--|
Db|--10--10--10--10--10--10----10--10--10--10--10--10----10--10--10--10--|



      S   S   S   S   S   S     S   S   S   S   S   S     S   S   S   S
Eb|----------------------------------------------------------------------|
Bb|----------------------------------------------------------------------|
Gb|----------------------------------------------------------------------|
Db|--12--12--12--12--12--12----14--14--14--14--14--14----15--15--15--15--|
Ab|--12--12--12--12--12--12----12--12--12--12--12--12----12--12--12--12--|
Db|--12--12--12--12--12--12----12--12--12--12--12--12----12--12--12--12--|



     S  S  S  S  S  S     S   S   S   S   S   S      S   S   S   S
Eb|----------------------------------------------------------------------|
Bb|----------------------------------------------------------------------|
Gb|--9--9--9--9--9--9----------------------------------------------------|
Db|--7--7--7--7--7--7-----12--12--12--12--12--12-----10--10--10--10------|
Ab|--7--7--7--7--7--7-----7---7---7---7---7---7------7---7---7---7-------|
Db|--7--7--7--7--7--7-----7---7---7---7---7---7------7---7---7---7-------|



     E.  E.  E.  E.  E  E     S S S S. S. S S S S S S S  S  S S
Eb|-------------------------|------------------------------------|
Bb|-------------------------|------------------------------------|
Gb|-------------------------|------------------------------------|
Db|--5---5---5---3---5--3---|-3-5-5-5-----3-5-5------------------|
Ab|--3---3---3---3---3--3---|-3-5-5-5-----3-5-5-5--------3-------|
Db|--3---3---3---3---3--3---|-3-5-5-5-----3-5-5-5-5-5-5-----3-2--|
                                                . . . .     . .



---Chorus 4---


      S   S   S   S   S   S     S   S   S   S   S   S     S   S   S   S
Eb|----------------------------------------------------------------------|
Bb|----------------------------------------------------------------------|
Gb|----------------------------------------------------------------------|
Db|--12--12--12--12--12--12----14--14--14--14--14--14----15--15--15--15--|
Ab|--12--12--12--12--12--12----12--12--12--12--12--12----12--12--12--12--|
Db|--12--12--12--12--12--12----12--12--12--12--12--12----12--12--12--12--|



     S  S  S  S  S  S     S   S   S   S   S   S      S   S   S   S
Eb|----------------------------------------------------------------------|
Bb|----------------------------------------------------------------------|
Gb|--9--9--9--9--9--9----------------------------------------------------|
Db|--7--7--7--7--7--7-----12--12--12--12--12--12-----10--10--10--10------|
Ab|--7--7--7--7--7--7-----7---7---7---7---7---7------7---7---7---7-------|
Db|--7--7--7--7--7--7-----7---7---7---7---7---7------7---7---7---7-------|



     S   S   S   S   S   S      S  S  S  S  S  S     S   S   S   S
Eb|----------------------------------------------------------------------|
Bb|----------------------------------------------------------------------|
Gb|-----------------------------9--9--9--9--9--9-----10--10--10--10------|
Db|--12--12--12--12--12--12-----8--8--8--8--8--8-----8---8---8---8-------|
Ab|--8---8---8---8---8---8------8--8--8--8--8--8-----8---8---8---8-------|
Db|--8---8---8---8---8---8------8--8--8--8--8--8-----8---8---8---8-------|



      S   S   S   S   S   S     S   S   S   S   S   S     S   S   S   S
Eb|----------------------------------------------------------------------|
Bb|----------------------------------------------------------------------|
Gb|--12--12--12--12--12--12----------------------------------------------|
Db|--10--10--10--10--10--10----14--14--14--14--14--14----10--10--10--10--|
Ab|--10--10--10--10--10--10----10--10--10--10--10--10----10--10--10--10--|
Db|--10--10--10--10--10--10----10--10--10--10--10--10----10--10--10--10--|



      S   S   S   S   S   S     S   S   S   S   S   S     S   S   S   S
Eb|----------------------------------------------------------------------|
Bb|----------------------------------------------------------------------|
Gb|----------------------------------------------------------------------|
Db|--12--12--12--12--12--12----14--14--14--14--14--14----15--15--15--15--|
Ab|--12--12--12--12--12--12----12--12--12--12--12--12----12--12--12--12--|
Db|--12--12--12--12--12--12----12--12--12--12--12--12----12--12--12--12--|



     S  S  S  S  S  S     S   S   S   S   S   S      S   S   S   S
Eb|----------------------------------------------------------------------|
Bb|----------------------------------------------------------------------|
Gb|--9--9--9--9--9--9----------------------------------------------------|
Db|--7--7--7--7--7--7-----12--12--12--12--12--12-----10--10--10--10------|
Ab|--7--7--7--7--7--7-----7---7---7---7---7---7------7---7---7---7-------|
Db|--7--7--7--7--7--7-----7---7---7---7---7---7------7---7---7---7-------|



     E.  E.  E.  E.  E  E       S S S S. S. S S S S. T S E  E  
Eb|-------------------------|----------------------------------|
Bb|-------------------------|----------------------------------|
Gb|-------------------------|----------------------------------|
Db|--5---5---5---3---5--3---|---3-5-5-5-----3-5-5-5----0-3--5--|
Ab|--3---3---3---3---3--3---|---3-5-5-5-----3-5-5-5----0-3--5--|
Db|--3---3---3---3---3--3---|---3-5-5-5-----3-5-5-5----0-3--5--|





---Outro---


     S S S  S S S  S S S  S S S  S S  S S     S S S  S S S  S S S  S S S  S S  S S
Eb|----------------------------------------|-----------------------------------------|
Bb|----------------------------------------|-----------------------------------------|
Gb|----------------------------------------|-----------------------------------------|
Db|----------------------------------------|-----------------------------------------|
Ab|----------------------------------------|-----------------------------------------|
Db|--3p0-0--5p0-0--3p0-0--3p0-0--5p0--3h5--|--3p0-0--5p0-0--3p0-0--3p0-0--6p5--3h5---|
     . . .  . . .  . . .  . . .  . .  . .     . . .  . . .  . . .  . . .  . .  . .



     S S S  S S S  S S S  S S S  S S  S S     S S S  S S S  S S S  S S S  S S  S S
Eb|----------------------------------------|-----------------------------------------|
Bb|----------------------------------------|-----------------------------------------|
Gb|----------------------------------------|-----------------------------------------|
Db|----------------------------------------|-----------------------------------------|
Ab|----------------------------------------|-----------------------------------------|
Db|--3p0-0--5p0-0--3p0-0--3p0-0--5p0--3h5--|--3p0-0--5p0-0--3p0-0--3p0-0--6p0--0h1---|
     . . .  . . .  . . .  . . .  . .  . .     . . .  . . .  . . .  . . .  . .  . .



     S S S  S S S  S S S  S S S  S S  S S     S S S  S S S  S S S  S S S  S S  S S
Eb|----------------------------------------|-----------------------------------------|
Bb|----------------------------------------|-----------------------------------------|
Gb|----------------------------------------|-----------------------------------------|
Db|----------------------------------------|-----------------------------------------|
Ab|----------------------------------------|-----------------------------------------|
Db|--3p0-0--5p0-0--3p0-0--3p0-0--5p0--3h5--|--3p0-0--5p0-0--3p0-0--3p0-0--6p5--3h5---|



     S S S  S S S  S S S  S S S  S S  S S     S S S  S S S  S S S  S S S  S S  S S
Eb|----------------------------------------|-----------------------------------------|
Bb|----------------------------------------|-----------------------------------------|
Gb|----------------------------------------|-----------------------------------------|
Db|----------------------------------------|-----------------------------------------|
Ab|----------------------------------------|-----------------------------------0-1---|
Db|--3p0-0--5p0-0--3p0-0--3p0-0--5p0--3h5--|--3p0-0--5p0-0--3p0-0--3p0-0--6p0--0-1---|

----------
And there it is. I know I make these long but it is, in my opinion, easier to scroll
down instead of jumping around the tab looking for parts and sometimes there are parts
with small differences and it just makes it easier for me to show them by writing
everything out. Thanks,
-Jay Logan (Subbliminal@DONTSPAM@hotmail.com) Just remove the 'DONTSPAM of course.
comments
print report bad tab
8 comments total. Showing first comments.
-1 reply
Operator (CA) wrote on March 18 2006, 04:44 pm

nice! i give you *****

-1 reply
ChrisW-Ness2003 wrote on June 2 2006, 07:30 am

I agree - this tab is spot on and is in right tuning for once. lol.

+2 reply
Ephor wrote on October 9 2007, 07:32 pm

you always make good tabs, not like that Zara ass clown, nice job

I want to post or [tab]
guest
You may want to rate the tab now too:
select rating
Please do not post tabs as comments. Select "correction" instead!