Oops, an error
Loading. Please wait.

Sons Of Plunder Tab

ver2
ver2

Whole song

Interactive

More versions @911Tabs.com
3,988 views 1 this week
no commentswrite comment
1 2 3 4 5
excellent!
x 1
Autoscroll
+/-
esc
set tempo
stop
Contributor
Difficulty
Tuning
intermediate
C# G# C# F# A# D#
NEW! There's an official Ultimate Guitar app which is ideal
for learning songs when you're away from computer. Get the app
WARNING: You are trying to view
                                    content from Ultimate-Guitar.com
                                    in an unauthorized application,
                                    which is prohibited.

                                    Please use an official Ultimate
                                    Guitar Tabs application for iPhone,
                                    iPad or Android to access legitimate
                                    chords, guitar, bass, and drum tabs
                                    from Ultimate-Guitar.com database.

                                    Type "ultimate guitar tabs" in Apple
                                    App Store's or Android Market's
                                    search to find the application.
Disturbed: Sons Of Plunder

Transcribed by: Andrew Zara (disturbedfreak0520@yahoo.com)

Date last modified: June 11, 2007

PLEASE DO NOT COPY THIS ATB TO ANOTHER SITE
WITHOUT AUTHORS' PERMISSION. THANK YOU.

Tuning: Drop Db (Db,Ab,Db,Gb,Bb,Eb)

   S  S S S  S S S  S S S  S S S  S S  S  3x
D#||------------------------------------------||
A#||------------------------------------------||
F#||*----------------------------------------*||
C#||*----------------------------------------*||
G#||---3p-0-0-5p-0-0-3p-0-0-3p-0-0-5p-0-3--5--||
C#||---3p-0-0-5p-0-0-3p-0-0-3p-0-0-5p-0-3h-5--||


  S  S S S  S S S  S S S  S S S  S S S  
---------------------------------------|
---------------------------------------|
---------------------------------------|
---------------------------------------|
--3p-0-0-5p-0-0-3p-0-0-3p-0-0-5p-0-0-1-|
--3p-0-0-5p-0-0-3p-0-0-3p-0-0-5p-0-0-1-|


    PM PM PM PM PM PM PM PM PM PM PM PM PM PM PM PM    
    S  S  S  S  S  S  S  S  S  S  S  S  S  S  S  S   3x
|----------------------------------------------------||
|----------------------------------------------------||
|*--------------------------------------------------*||
|*--------------------------------------------------*||
|----------------------------------------------------||
|---3--0--0--5--0--0--3--0--0--3--0--0--5--0--3--5---||


  PM PM PM PM PM PM PM PM PM PM PM PM PM PM PM PM  
  S  S  S  S  S  S  S  S  S  S  S  S  S  S  S  S   
--------------------------------------------------|
--------------------------------------------------|
--------------------------------------------------|
--------------------------------------------------|
--------------------------------------------------|
--3--0--0--5--0--0--3--0--0--3--0--0--5--0--0--1--|


  S  S S S  S S S  S S S  S S S  S S  S  
----------------------------------------|
----------------------------------------|
----------------------------------------|
----------------------------------------|
----------------------------------------|
--3p-0-0-5p-0-0-3p-0-0-3p-0-0-5p-0-3h-5-|


  S  S S S  S S S  S S S  S S S  S S  S  
----------------------------------------|
----------------------------------------|
----------------------------------------|
----------------------------------------|
----------------------------------------|
--3p-0-0-5p-0-0-3p-0-0-3p-0-0-5p-0-3h-5-|


  S  S S S  S S S  S S S  S S S  S S  S  
----------------------------------------|
----------------------------------------|
----------------------------------------|
----------------------------------------|
----------------------------------------|
--3p-0-0-5p-0-0-3p-0-0-3p-0-0-5p-0-3h-5-|


  S  S S S  S S S  S S S  S S S  S S S    E.  E.  E.  E.  E  E   
---------------------------------------|------------------------|
---------------------------------------|------------------------|
---------------------------------------|------------------------|
---------------------------------------|--0---6---0---3---0--6--|
---------------------------------------|--0---6---0---3---0--6--|
--3p-0-0-5p-0-0-3p-0-0-3p-0-0-5p-0-0-1-|--0---6---0---3---0--6--|


                             PM PM PM                    
  E.  E.  E.  E.  S S S S    S  S  S  E.  E.  E.  E  E   
--------------------------|-----------------------------|
--------------------------|-----------------------------|
--------------------------|-----------------------------|
--0---6---3---5---3-6-6-3-|--0--0--0--6---0---3---0--6--|
--0---6---3---5---3-6-6-3-|--0--0--0--6---0---3---0--6--|
--0---6---3---5---3-6-6-3-|--0--0--0--6---0---3---0--6--|


  E.  E.  E.  E.  S S S S     S  S  S  S  S  S  S  S  S  S  S  S  S  S  S  S  
--------------------------|--------------------------------------------------|
--------------------------|--------------------------------------------------|
--------------------------|--------------------------------------------------|
--0---6---3---5---3-5-6-3-|--12-12-12-12-12-12-14-14-14-14-14-14-15-15-15-15-|
--0---6---3---5---3-5-6-3-|--12-12-12-12-12-12-12-12-12-12-12-12-12-12-12-12-|
--0---6---3---5---3-5-6-3-|--12-12-12-12-12-12-12-12-12-12-12-12-12-12-12-12-|


  S S S S S S  S  S  S  S  S  S  S  S  S  S  
--------------------------------------------|
--------------------------------------------|
--9-9-9-9-9-9-------------------------------|
--7-7-7-7-7-7-12-12-12-12-12-12-10-10-10-10-|
--7-7-7-7-7-7--7--7--7--7--7--7--7--7--7--7-|
--7-7-7-7-7-7--7--7--7--7--7--7--7--7--7--7-|


   S  S  S  S  S  S S S S S S S  S  S  S  S  
--------------------------------------------|
--------------------------------------------|
--------------------9-9-9-9-9-9-10-10-10-10-|
--12-12-12-12-12-12-8-8-8-8-8-8--8--8--8--8-|
---8--8--8--8--8--8-8-8-8-8-8-8--8--8--8--8-|
---8--8--8--8--8--8-8-8-8-8-8-8--8--8--8--8-|


   S  S  S  S  S  S  S  S  S  S  S  S  S  S  S  S  
--------------------------------------------------|
--------------------------------------------------|
--12-12-12-12-12-12-------------------------------|
--10-10-10-10-10-10-14-14-14-14-14-14-10-10-10-10-|
--10-10-10-10-10-10-10-10-10-10-10-10-10-10-10-10-|
--10-10-10-10-10-10-10-10-10-10-10-10-10-10-10-10-|


   S  S  S  S  S  S  S  S  S  S  S  S  S  S  S  S  
--------------------------------------------------|
--------------------------------------------------|
--------------------------------------------------|
--12-12-12-12-12-12-14-14-14-14-14-14-15-15-15-15-|
--12-12-12-12-12-12-12-12-12-12-12-12-12-12-12-12-|
--12-12-12-12-12-12-12-12-12-12-12-12-12-12-12-12-|


  S S S S S S  S  S  S  S  S  S  S  S  S  S    E.  E.  E.  E.  E  E   
--------------------------------------------|------------------------|
--------------------------------------------|------------------------|
--9-9-9-9-9-9-------------------------------|------------------------|
--7-7-7-7-7-7-12-12-12-12-12-12-10-10-10-10-|--5---5---5---3---5--3--|
--7-7-7-7-7-7--7--7--7--7--7--7--7--7--7--7-|--3---3---3---3---3--3--|
--7-7-7-7-7-7--7--7--7--7--7--7--7--7--7--7-|--3---3---3---3---3--3--|


  PM PM PM PM    PM PM PM PM                                
  S  S  S  S  E  S  S  S  S  S S E  E     W                 
---------------------------------------|-------------------|
---------------------------------------|-------------------|
---------------------------------------|-------------------|
--3--5--5--5-----3--5--5--5----5-3--5--|-------------------|
--3--5--5--5-----3--5--5--5----5-3--5--|-------------------|
--3--5--5--5-----3--5--5--5----5-3--5--|-------------------|


  PM  PM  PM  PM  PM PM      PM  PM  PM  PM PM PM        
  E.  E.  E.  E.  E  S  S    E.  E.  E.  E  S  S  S S S  
--------------------------|-----------------------------|
--------------------------|-----------------------------|
--------------------------|-----------------------------|
--------------------------|-------------------------1-L-|
--0---0---0---0---0--0--0-|--0---0---0---0--0--1--0-1-L-|
--0---0---0---0---0--0--0-|--0---0---0---0--0--1--0-1-L-|


  PM  PM  PM  PM  PM PM      PM  PM  PM  PM PM PM        
  E.  E.  E.  E.  E  S  S    E.  E.  E.  E  S  S  S S S  
--------------------------|-----------------------------|
--------------------------|-----------------------------|
--------------------------|-----------------------------|
--------------------------|-------------------------1-L-|
--0---0---0---0---0--0--0-|--0---0---0---0--0--1--0-1-L-|
--0---0---0---0---0--0--0-|--0---0---0---0--0--1--0-1-L-|


  S  S S S  S S S  S S S  S S S  S S  S  
----------------------------------------|
----------------------------------------|
----------------------------------------|
----------------------------------------|
----------------------------------------|
--3p-0-0-5p-0-0-3p-0-0-3p-0-0-5p-0-3h-5-|


  S  S S S  S S S  S S S  S S S  S S  S  
----------------------------------------|
----------------------------------------|
----------------------------------------|
----------------------------------------|
----------------------------------------|
--3p-0-0-5p-0-0-3p-0-0-3p-0-0-5p-0-3h-5-|


  S  S S S  S S S  S S S  S S S  S S  S  
----------------------------------------|
----------------------------------------|
----------------------------------------|
----------------------------------------|
----------------------------------------|
--3p-0-0-5p-0-0-3p-0-0-3p-0-0-5p-0-3h-5-|


  S  S S S  S S S  S S S  S S S  S S S    E.  E.  E.  E.  E  E   
---------------------------------------|------------------------|
---------------------------------------|------------------------|
---------------------------------------|------------------------|
---------------------------------------|--0---6---0---3---0--6--|
---------------------------------------|--0---6---0---3---0--6--|
--3p-0-0-5p-0-0-3p-0-0-3p-0-0-5p-0-0-1-|--0---6---0---3---0--6--|


                             PM PM PM                    
  E.  E.  E.  E.  S S S S    S  S  S  E.  E.  E.  E  E   
--------------------------|-----------------------------|
--------------------------|-----------------------------|
--------------------------|-----------------------------|
--0---6---3---5---3-6-6-3-|--0--0--0--6---0---3---0--6--|
--0---6---3---5---3-6-6-3-|--0--0--0--6---0---3---0--6--|
--0---6---3---5---3-6-6-3-|--0--0--0--6---0---3---0--6--|


  E.  E.  E.  E.  S S S S     S  S  S  S  S  S  S  S  S  S  S  S  S  S  S  S  
--------------------------|--------------------------------------------------|
--------------------------|--------------------------------------------------|
--------------------------|--------------------------------------------------|
--0---6---3---5---3-5-6-3-|--12-12-12-12-12-12-14-14-14-14-14-14-15-15-15-15-|
--0---6---3---5---3-5-6-3-|--12-12-12-12-12-12-12-12-12-12-12-12-12-12-12-12-|
--0---6---3---5---3-5-6-3-|--12-12-12-12-12-12-12-12-12-12-12-12-12-12-12-12-|


  S S S S S S  S  S  S  S  S  S  S  S  S  S  
--------------------------------------------|
--------------------------------------------|
--9-9-9-9-9-9-------------------------------|
--7-7-7-7-7-7-12-12-12-12-12-12-10-10-10-10-|
--7-7-7-7-7-7--7--7--7--7--7--7--7--7--7--7-|
--7-7-7-7-7-7--7--7--7--7--7--7--7--7--7--7-|


   S  S  S  S  S  S S S S S S S  S  S  S  S  
--------------------------------------------|
--------------------------------------------|
--------------------9-9-9-9-9-9-10-10-10-10-|
--12-12-12-12-12-12-8-8-8-8-8-8--8--8--8--8-|
---8--8--8--8--8--8-8-8-8-8-8-8--8--8--8--8-|
---8--8--8--8--8--8-8-8-8-8-8-8--8--8--8--8-|


   S  S  S  S  S  S  S  S  S  S  S  S  S  S  S  S  
--------------------------------------------------|
--------------------------------------------------|
--12-12-12-12-12-12-------------------------------|
--10-10-10-10-10-10-14-14-14-14-14-14-10-10-10-10-|
--10-10-10-10-10-10-10-10-10-10-10-10-10-10-10-10-|
--10-10-10-10-10-10-10-10-10-10-10-10-10-10-10-10-|


   S  S  S  S  S  S  S  S  S  S  S  S  S  S  S  S  
--------------------------------------------------|
--------------------------------------------------|
--------------------------------------------------|
--12-12-12-12-12-12-14-14-14-14-14-14-15-15-15-15-|
--12-12-12-12-12-12-12-12-12-12-12-12-12-12-12-12-|
--12-12-12-12-12-12-12-12-12-12-12-12-12-12-12-12-|


  S S S S S S  S  S  S  S  S  S  S  S  S  S    E.  E.  E.  E.  E  E   
--------------------------------------------|------------------------|
--------------------------------------------|------------------------|
--9-9-9-9-9-9-------------------------------|------------------------|
--7-7-7-7-7-7-12-12-12-12-12-12-10-10-10-10-|--5---5---5---3---5--3--|
--7-7-7-7-7-7--7--7--7--7--7--7--7--7--7--7-|--3---3---3---3---3--3--|
--7-7-7-7-7-7--7--7--7--7--7--7--7--7--7--7-|--3---3---3---3---3--3--|


  PM PM PM PM    PM PM PM PM                                                    
  S  S  S  S  E  S  S  S  S  S S E  E     W                   W                 
---------------------------------------|-------------------|-------------------|
---------------------------------------|-------------------|-------------------|
---------------------------------------|-------------------|-------------------|
--3--5--5--5-----3--5--5--5----5-3--5--|--0----------------|--L----------------|
--3--5--5--5-----3--5--5--5----5-3--5--|--0----------------|--L----------------|
--3--5--5--5-----3--5--5--5----5-3--5--|--0----------------|--L----------------|


  W                   W                   W                   W                 
-------------------|-------------------|-------------------|-------------------|
--3----------------|--L----------------|--L----------------|--L----------------|
--2----------------|--L----------------|--L----------------|--L----------------|
--0----------------|--L----------------|--L----------------|--L----------------|
--0----------------|--L----------------|--L----------------|--L----------------|
--0----------------|--L----------------|--L----------------|--L----------------|


  W                   W                   W                   W                 
-------------------|-------------------|-------------------|-------------------|
--L----------------|-------------------|-------------------|-------------------|
--L----------------|-------------------|-------------------|-------------------|
--L----------------|-------------------|-------------------|-------------------|
--L----------------|-------------------|-------------------|-------------------|
--L----------------|-------------------|-------------------|-------------------|


  W                   W                   W                   W                 
-------------------|-------------------|-------------------|-------------------|
-------------------|-------------------|-------------------|-------------------|
-------------------|-------------------|-------------------|-------------------|
-------------------|-------------------|-------------------|-------------------|
-------------------|-------------------|-------------------|-------------------|
-------------------|-------------------|-------------------|-------------------|


                                                       PM           PM      
  W                   W                   E  S S S S S S  S S S S S S  S S  
-------------------|-------------------|-----------------------------------|
-------------------|-------------------|-----------------------------------|
-------------------|-------------------|-----------------------------------|
-------------------|-------------------|-----5-7---7-8----5-7---7-8----3-5-|
-------------------|-------------------|--0--3-5---5-6-0--3-5---5-6-0--1-3-|
-------------------|-------------------|--0------------0------------0------|


               PM             PM                     PM           PM      
  E  S S S S S S  S S S  S  S S  S S    E  S S S S S S  S S S S S S  S S  
-------------------------------------|-----------------------------------|
-------------------------------------|-----------------------------------|
-------------------------------------|-----------------------------------|
-----5-7---7-8----5-7---12-11----5-7-|-----5-7---7-8----5-7---7-8----3-5-|
--0--3-5---5-6-0--3-5---10--9-0--3-5-|--0--3-5---5-6-0--3-5---5-6-0--1-3-|
--0------------0--------------0------|--0------------0------------0------|


                                      PM           PM      
  Q.     Q    Q    E     E  S S S S S S  S S S S S S  S S  
----------------------|-----------------------------------|
----------------------|-----------------------------------|
----------------------|-----------------------------------|
--8------8----8----7--|-----5-7---7-8----5-7---7-8----3-5-|
--8------6----6----7--|--0--3-5---5-6-0--3-5---5-6-0--1-3-|
--8----------------7--|--0------------0------------0------|


               PM             PM                     PM           PM      
  E  S S S S S S  S S S  S  S S  S S    E  S S S S S S  S S S S S S  S S  
-------------------------------------|-----------------------------------|
-------------------------------------|-----------------------------------|
-------------------------------------|-----------------------------------|
-----5-7---7-8----5-7---12-11----5-7-|-----5-7---7-8----5-7---7-8----3-5-|
--0--3-5---5-6-0--3-5---10--9-0--3-5-|--0--3-5---5-6-0--3-5---5-6-0--1-3-|
--0------------0--------------0------|--0------------0------------0------|


  Q.     Q    Q    E      S  S  S  S  S  S  S  S  S  S  S  S  S  S  S  S  
----------------------|--------------------------------------------------|
----------------------|--------------------------------------------------|
----------------------|--------------------------------------------------|
--8------8----8----7--|--12-12-12-12-12-12-14-14-14-14-14-14-15-15-15-15-|
--8------6----6----7--|--12-12-12-12-12-12-12-12-12-12-12-12-12-12-12-12-|
--8----------------7--|--12-12-12-12-12-12-12-12-12-12-12-12-12-12-12-12-|


  S S S S S S  S  S  S  S  S  S  S  S  S  S  
--------------------------------------------|
--------------------------------------------|
--9-9-9-9-9-9-------------------------------|
--7-7-7-7-7-7-12-12-12-12-12-12-10-10-10-10-|
--7-7-7-7-7-7--7--7--7--7--7--7--7--7--7--7-|
--7-7-7-7-7-7--7--7--7--7--7--7--7--7--7--7-|


   S  S  S  S  S  S S S S S S S  S  S  S  S  
--------------------------------------------|
--------------------------------------------|
--------------------9-9-9-9-9-9-10-10-10-10-|
--12-12-12-12-12-12-8-8-8-8-8-8--8--8--8--8-|
---8--8--8--8--8--8-8-8-8-8-8-8--8--8--8--8-|
---8--8--8--8--8--8-8-8-8-8-8-8--8--8--8--8-|


   S  S  S  S  S  S  S  S  S  S  S  S  S  S  S  S  
--------------------------------------------------|
--------------------------------------------------|
--12-12-12-12-12-12-------------------------------|
--10-10-10-10-10-10-14-14-14-14-14-14-10-10-10-10-|
--10-10-10-10-10-10-10-10-10-10-10-10-10-10-10-10-|
--10-10-10-10-10-10-10-10-10-10-10-10-10-10-10-10-|


   S  S  S  S  S  S  S  S  S  S  S  S  S  S  S  S  
--------------------------------------------------|
--------------------------------------------------|
--------------------------------------------------|
--12-12-12-12-12-12-14-14-14-14-14-14-15-15-15-15-|
--12-12-12-12-12-12-12-12-12-12-12-12-12-12-12-12-|
--12-12-12-12-12-12-12-12-12-12-12-12-12-12-12-12-|


  S S S S S S  S  S  S  S  S  S  S  S  S  S    E.  E.  E.  E.  E  E   
--------------------------------------------|------------------------|
--------------------------------------------|------------------------|
--9-9-9-9-9-9-------------------------------|------------------------|
--7-7-7-7-7-7-12-12-12-12-12-12-10-10-10-10-|--5---5---5---3---5--3--|
--7-7-7-7-7-7--7--7--7--7--7--7--7--7--7--7-|--3---3---3---3---3--3--|
--7-7-7-7-7-7--7--7--7--7--7--7--7--7--7--7-|--3---3---3---3---3--3--|


  PM PM PM PM    PM PM PM PM              
  S  S  S  S  E  S  S  S  S  S S S S S S  
-----------------------------------------|
-----------------------------------------|
-----------------------------------------|
--3--5--5--5-----3--5--5--5--------------|
--3--5--5--5-----3--5--5--5------3-------|
--3--5--5--5-----3--5--5--5--3-5---5-3-2-|


   S  S  S  S  S  S  S  S  S  S  S  S  S  S  S  S  
--------------------------------------------------|
--------------------------------------------------|
--------------------------------------------------|
--12-12-12-12-12-12-14-14-14-14-14-14-15-15-15-15-|
--12-12-12-12-12-12-12-12-12-12-12-12-12-12-12-12-|
--12-12-12-12-12-12-12-12-12-12-12-12-12-12-12-12-|


  S S S S S S  S  S  S  S  S  S  S  S  S  S  
--------------------------------------------|
--------------------------------------------|
--9-9-9-9-9-9-------------------------------|
--7-7-7-7-7-7-12-12-12-12-12-12-10-10-10-10-|
--7-7-7-7-7-7--7--7--7--7--7--7--7--7--7--7-|
--7-7-7-7-7-7--7--7--7--7--7--7--7--7--7--7-|


   S  S  S  S  S  S S S S S S S  S  S  S  S  
--------------------------------------------|
--------------------------------------------|
--------------------9-9-9-9-9-9-10-10-10-10-|
--12-12-12-12-12-12-8-8-8-8-8-8--8--8--8--8-|
---8--8--8--8--8--8-8-8-8-8-8-8--8--8--8--8-|
---8--8--8--8--8--8-8-8-8-8-8-8--8--8--8--8-|


   S  S  S  S  S  S  S  S  S  S  S  S  S  S  S  S  
--------------------------------------------------|
--------------------------------------------------|
--12-12-12-12-12-12-------------------------------|
--10-10-10-10-10-10-14-14-14-14-14-14-10-10-10-10-|
--10-10-10-10-10-10-10-10-10-10-10-10-10-10-10-10-|
--10-10-10-10-10-10-10-10-10-10-10-10-10-10-10-10-|


   S  S  S  S  S  S  S  S  S  S  S  S  S  S  S  S  
--------------------------------------------------|
--------------------------------------------------|
--------------------------------------------------|
--12-12-12-12-12-12-14-14-14-14-14-14-15-15-15-15-|
--12-12-12-12-12-12-12-12-12-12-12-12-12-12-12-12-|
--12-12-12-12-12-12-12-12-12-12-12-12-12-12-12-12-|


  S S S S S S  S  S  S  S  S  S  S  S  S  S    E.  E.  E.  E.  E  E   
--------------------------------------------|------------------------|
--------------------------------------------|------------------------|
--9-9-9-9-9-9-------------------------------|------------------------|
--7-7-7-7-7-7-12-12-12-12-12-12-10-10-10-10-|--5---5---5---3---5--3--|
--7-7-7-7-7-7--7--7--7--7--7--7--7--7--7--7-|--3---3---3---3---3--3--|
--7-7-7-7-7-7--7--7--7--7--7--7--7--7--7--7-|--3---3---3---3---3--3--|


  S S S S E  S S S S S S E  E       S  S S S  S S S  S S S  S S S  S S  S  3x
-------------------------------||------------------------------------------||
-------------------------------||------------------------------------------||
-------------------------------||*----------------------------------------*||
--3-5-5-5----3-5-5-5---5-3--5--||*----------------------------------------*||
--3-5-5-5----3-5-5-5---5-3--5--||------------------------------------------||
--3-5-5-5----3-5-5-5---5-3--5--||---3p-0-0-5p-0-0-3p-0-0-3p-0-0-5p-0-3h-5--||


  S  S S S  S S S  S S S  S S S  S S S  
---------------------------------------|
---------------------------------------|
---------------------------------------|
---------------------------------------|
---------------------------------------|
--3p-0-0-5p-0-0-3p-0-0-3p-0-0-5p-0-0-1-|


  S  S S S  S S S  S S S  S S S  S S  S  
----------------------------------------|
----------------------------------------|
----------------------------------------|
----------------------------------------|
--3p-0-0-5p-0-0-3p-0-0-3p-0-0-5p-0-3--5-|
--3p-0-0-5p-0-0-3p-0-0-3p-0-0-5p-0-3h-5-|


  S  S S S  S S S  S S S  S S S  S S  S  
----------------------------------------|
----------------------------------------|
----------------------------------------|
----------------------------------------|
--3p-0-0-5p-0-0-3p-0-0-3p-0-0-5p-0-3--5-|
--3p-0-0-5p-0-0-3p-0-0-3p-0-0-5p-0-3h-5-|


  S  S S S  S S S  S S S  S S S  S S  S  
----------------------------------------|
----------------------------------------|
----------------------------------------|
----------------------------------------|
--3p-0-0-5p-0-0-3p-0-0-3p-0-0-5p-0-3--5-|
--3p-0-0-5p-0-0-3p-0-0-3p-0-0-5p-0-3h-5-|


  S  S S S  S S S  S S S  S S S  S S S   
---------------------------------------||
---------------------------------------||
---------------------------------------||
---------------------------------------||
--3p-0-0-5p-0-0-3p-0-0-3p-0-0-5p-0-0-1-||
--3p-0-0-5p-0-0-3p-0-0-3p-0-0-5p-0-0-1-||




Duration Legend
---------------
W - whole
H - half
Q - quarter
E - 8th
S - 16th
T - 32nd
X - 64th
. - note dotted
|-n-|  - n-tuplets


Tablature Legend
----------------
L - tied note
x - dead note
g - grace note
(n) - ghost note
> - accentuded note
NH - natural harmonic
AH - artificial harmonic
TH - tapped harmonic
SH - semi harmonic
PH - pitch harmonic
h - hammer on
p - pull off
b - bend
br - bendRelease
pb - preBend
pbr - preBendRelease
brb - bendReleaseBend
\n/ - tremolo bar dip
\n - tremolo bar dive
-/n - tremolo bar Release up
/n\ - tremolo bar inverted dip
/n - tremolo bar return
-\n - tremolo bar Release down
S - shift slide
s - legato slide
/ -  slide into from below or out of upwards
\ -  slide into from above or out of downwards
~ - vibrato
W - wide vibrato
tr - trill
TP - tremolo picking
T - tapping
S - slap
P - pop
< - fade in
^ - brush up
v - brush down
comments
We did not receive enough feedback on this tab! Please rate:
print report bad tab
1 2 3 4 5
I want to post or [tab]
guest
You may want to rate the tab now too:
select rating
Please do not post tabs as comments. Select "correction" instead!